Song name
# A B C D E F G H I J K L M N O P Q R S T U V W X Y Z

Yellow Second - Swingset tab

if you think this is wrong you are an idiot because this is right of of their website 
and THEY TABBED IT OUT!

Swingset by Yellow Second
========================

Mostly played with a 12-string acoustic.

Note: Do not play the rhythm figures until advised.

H - Natural harmonic
la - artificial (pinched) harmonic
^ - hammer/pull
' - Semitone (1 fret) bend
(b) - bend
/ - slide

---

Intro:
(keyboard part is played a second time here)
|
Keyboard part v Dadd2
H H H
E --17----------- ----------------------0---|
B ----18---17---- ----------------------3---|
G ------19------- ----------------------2---|
D --------------- -----7------12--------0---|
A --------------- --------12----------------|
E --------------- --------------------------|


Main run: (play twice)

E -------13---------12----------10---------8--------5--------3---------1-|
B -----------------------------------------------------------------------|
G ----14----14\12------12\10-------10\9-------9\5------5\4------4--4\2---|
D --0-------------0-----------0----------0--------0--------0-------------|
A -----------------------------------------------------------------------|
E -----------------------------------------------------------------------|


Rhythm fig.1:

B --15(w)13(r)15(w)13(r)15(w)13(r)15~~-- (hit note at 15, lower it with
whammy to 13, release, repeat)


<-- play 3 times, 2nd --> C F Dadd2
time play rhythm fig.1

E ------+--------------0-----------+-------1---0-----|
B ------|------------------2-------|---1---1---3-----|
G ------|--------------------2-----|---0---2---2-----|
D ------|----0-3'-0------0---------|---2---3---0-----|
A --0-0-|-3'---------------------0-|---3-------------|
E ------+--------------------------+-----------------|


Verse:

D (D/Dsus4/Dadd9) C G

E -----2-------2-----2-3-2-0--0^2-----------3---------------3-------|
B -----3-------3-----3-3-3-3--3-------------3---------------3-------|
G -----2-------2-----2-2-2-2--2----0--------0---------------0-------|
D -----0-------0-----0-------------2--------------------------------|
A ---------------------------------3--------------------------0^2---|
E -----------------------------------------------------3------------|

1. It dawned on me that you are not able, to get up off the floor

2a. In this broken mirror youre sullen, and i you would deject,
2b. Vivid, bright-the colors that follow, and fill this empty room


C G C F D

E ------3-------3----------------1-----0-----0^2----------|
B ------3-------3-------------1--1-----3-----------3------|
G ------0-------0-------------0--2-----2-------------2----|
D --2-------------------------2--3-----0---------0-----0--|
A --3--------2----0^2---------3---------------------------|
E -----------3--------------------------------------------|

1. If up to me i would have brought this up before

2. But thoughts turn to glass,and on these things i reflect.
(Continue to 2b above)


D (D/Dsus4/Dadd9) C G

E -----2-------2-----2-3-2-0--0^2-----------3---------------3-------|
B -----3-------3-----3-3-3-3--3-------------3---------------3-------|
G -----2-------2-----2-2-2-2--2----0--------0---------------0-------|
D -----0-------0-----0-------------2--------------------------------|
A ---------------------------------3--------------------------0^2---|
E -----------------------------------------------------3------------|

1. If i had returned it would not have ended up like this

2. Your pekid skin, just a sign of your impending doom.


Chorus:

C G F D Dadd2

E --------3---3--------------------1----------2-----0----------|
B --------3---3---3----------------1------------------3--------|
G ---0--------0--------------2-----2--------------------2------|
D ---2--------0--------------3-------------0-----0--------0----|
A ---3--------------0^2------3---------------------------------|
E ------------3------------------------------------------------|

Up in the air, falling down empty handed
While unaware of the ground where you landed


E --------3---3----------------------2---0^2----------|
B --------3---3---3-----------------------------3-----|
G ---0--------0-----------------------------------2---|
D ---2--------0---------------0--3'--0-------0------0-|
A ---3--------------0^2--0^3'-------------------------|
E ------------3---------------------------------------|

"dont follow me and youll be doing fine,"


Rhythm fig.2

E ------------------------------------------------|
B -13(b)15--13------------------------------------|
G --------------12(b)14--12---10---12(b)14-12-----|
D --------------------------------------------12~-|
A ------------------------------------------------|
E ------------------------------------------------|

Just dont give me that line.


Rhythm fig.3 (keyboard arranged for guitar)

E -15-14----------------|
B -------15-------------|
G ----------14-12-11----|
D -------------------12-|
A ----------------------|
E ----------------------|

(main run) w/rhythm fig.2
(main run) w/rhythm fig.3

Rhythm fig.4

E -13(b)15--------------------------------------------------|
B -----------15~------12------------------------------------|
G -----------------------12(b)14-12(b)14--12-10-------------|
D -----------------------------------------------12-10-12~~-|
A ----------------------------------------------------------|
E ----------------------------------------------------------|

(chorus) w/rhythm fig.4
(chorus)
(main run) x 2

Solo:
la la la la
E --------------------------------------------------------|
B --------------------------------------------------------|
G --------------------------------------------------------|
D -----------------------------5(b)7-(b)7-(b)7-(b)7-5-3~--|
A -x\--5\3/5---5-3-/5~---3--5-----------------------------|
E --------------------------------------------------------|

Saw you running after,


la
E -------------13-15---15(b)17~-15-13-15(b)17~~---------------------------------|
B -------13-15------------------------------------------------------------------|
G -12-14-------------------------------------------------------------------5/7~-|
D ------------------------------------------------------5(b)7~--------7\5--5/7~-|
A -------------------------------------------------0--0---------0--0--5\3--3/5~-|
E ------------------------------------------------------------------------------|

What better way to tell you

la la la la la la la la la
E -----------------------------------------------------------|
B -----------------------------------------------------------|
G -----------------------------------------------------------|
D ---------3'---------3--5-5'-3~-----0^3^0--------3-5'-5-3~--|
A -x\--3-5-----5--3-5-----------------------3^0-5------------|
E -----------------------------------------------------------|

Than This?
la la la
E ---------------------------------------------------------------------------|
B ----------13----------------------13---------------------------------------|
G --12(b)14-----12(b)14-10--12(b)14----(b)14-12-10--10~\---5-5-5-5-5-5--5/7--|
D ---------------------------------------------------------5-5-5-5-5-5--5/7--|
A ---------------------------------------------------------3-3-3-3-3-3--3/5--|
E ---------------------------------------------------------------------------|

(after the solo, accompany main 12-string chords with distorted power chords)

(chorus)

Rhythm fig.5

E -10-10-10-10-10-10-10--13(b)15--13^10---------------|
B -10-10-10-10-10-10-10-----------------10---10\8/10~-|
G -11-11-11-11-11-11-11-------------------------------|
D ----------------------------------------------------|
A ----------------------------------------------------|
E ----------------------------------------------------|


(chorus)

Rhythm fig.6

E -15(b)17------13-------|
B -----------------15~~--|
G -----------------------|
D -----------------------|
A -----------------------|
E -----------------------|

(chorus) w/rhythm fig.6

(main run)
(main run) end with Dmaj as last chord
Tap to rate this tab
# A B C D E F G H I J K L M N O P Q R S T U V W X Y Z