Song name
# A B C D E F G H I J K L M N O P Q R S T U V W X Y Z

Yellowcard - Only One Live Acoustic tab

-------------------------------------------------------------------------------
			  Only One Live Acoustic - Yellowcard
-------------------------------------------------------------------------------
Tabbed by: bloodred16
Email: happytreefriends_firstblood@hotmail.com

This live acoustic version is taken off the iTunes live album they did: Live 
from Las Vegas At The Palms. The album is kick-ass and they play this song a
little differently than how they usually would, so here's a tab for it. Enjoi:)

In the pre-chorus and chorus I've also included some open notes which I don't
think Ryan plays, I think he plays JUST powerchords, I added these purely
'cause I think the song sounds better with them.

Listen to the song for all the rhythm and accents and all that sorta stuff!

Any corrections or improvements throw in the comments and I'll have a look and
change :D

Tuning: 1 step down (DGCFAd)

Intro & Verse
d|---------------------------------------------------------------------------|
A|----0-----0-----0-----0-----0-------0-----0-----0-----0-----0-------0-----0|
F|--1-----1-----1-----1-----1-------1-----1-----1-----1-----1-------1-----1--|
C|---------------------------------------------------------------------------|
G|4-----4-----4-----4-----4-----4-0-----0-----0-----0-----0-----0-2-----2----|
D|---------------------------------------------------------------------------|

d|---------------------------------------------------------------------------|
A|--------0-----0---------0-----0-----0-----0-----0--------------------------|
F|--1---1-----1-----1---1-----1-----1-----1-----1----------------------------|
C|---------------------------------------------------------------------------|
G|2---4-----4-----4---0-----0-----0-----0-----0-----0------------------------|
D|---------------------------------------------------------------------------|

Pre-chorus
d|-------0-0-0-------0-0-----0-0---------0-0-0-------0-0-----0-0-------------|
A|-------0-0-0-------0-0-----0-0---------0-0-0-------0-0-----0-0-------------|
F|-------x-x-x-------x-x-----x-x---------x-x-x-------x-x-----x-x-------------|
C|4--4-4-4-4-4-4-4-4-4-4-4-4-4-4--6--6-6-6-6-6-6-6-6-6-6-6-6-6-6-------------|
G|2--2-2-2-2-2-2-2-2-2-2-2-2-2-2--4--4-4-4-4-4-4-4-4-4-4-4-4-4-4-------------|
D|---------------------------------------------------------------------------|

d|-------0-0-0-------0-0-----0-0---------0-0-0-------------------------------|
A|-------0-0-0-------0-0-----0-0---------0-0-0-------------------------------|
F|-------x-x-x-------x-x-----x-x---------x-x-x-------------------------------|
C|2--2-2-2-2-2-2-2-2-2-2-2-2-2-2--4--4-4-4-4-4-------------------------------|
G|2--2-2-2-2-2-2-2-2-2-2-2-2-2-2--2--2-2-2-2-2-------------------------------|
D|0--0-0-0-0-0-0-0-0-0-0-0-0-0-0---------------------------------------------|

Chorus
d|0-0-0-0-0-0-0-0-0-0-0-0-0-0-0-0--0-0-0-0-0-0-0-0-0-0-0-0-0-0-0-0-----------|
A|0-0-0-0-0-0-0-0-0-0-0-0-0-0-0-0--0-0-0-0-0-0-0-0-0-0-0-0-0-0-0-0-----------|
F|6-6-6-6-6-6-6-6-6-6-6-6-6-6-6-6--2-2-2-2-2-2-2-2-2-2-2-2-2-2-2-2-----------|
C|6-6-6-6-6-6-6-6-6-6-6-6-6-6-6-6--2-2-2-2-2-2-2-2-2-2-2-2-2-2-2-2-----------|
G|4-4-4-4-4-4-4-4-4-4-4-4-4-4-4-4--0-0-0-0-0-0-0-0-0-0-0-0-0-0-0-0-----------|
D|---------------------------------------------------------------------------|

d|0-0-0-0-0-0-0-0-0-0-0-0-0-0-0-0--0-0-0-0-0-0-0-0-0-0-0-0-0-0-0-0-----------|
A|0-0-0-0-0-0-0-0-0-0-0-0-0-0-0-0--0-0-0-0-0-0-0-0-0-0-0-0-0-0-0-0-----------|
F|x-x-x-x-x-x-x-x-x-x-x-x-x-x-x-x--4-4-4-4-4-4-4-4-4-4-4-4-4-4-4-4-----------|
C|2-2-2-2-2-2-2-2-2-2-2-2-2-2-2-2--4-4-4-4-4-4-4-4-4-4-4-4-4-4-4-4-----------|
G|2-2-2-2-2-2-2-2-2-2-2-2-2-2-2-2--2-2-2-2-2-2-2-2-2-2-2-2-2-2-2-2-----------|
D|0-0-0-0-0-0-0-0-0-0-0-0-0-0-0-0--------------------------------------------|

Intro & Verse
Pre-Chorus - on this second time don't stop, keep playing that chord
Chorus

Bridge - repeat this palm muted bit as many times necesary
d|---------------------------------------------------------------------------|
A|---------------------------------------------------------------------------|
F|---------------------------------------------------------------------------|
C|6-6-6-6-6-6-6-6-6-6-6-6-6-6-6----------------------------------------------|
G|4-4-4-4-4-4-4-4-4-4-4-4-4-4-4----------------------------------------------|
D|---------------------------------------------------------------------------|
  PM--------------------------|


Next is this bit played with the lyrics. I've not bothered with writing the
rhythm 'cause all you're doing is playing these chords palm-muted.
d|---------------------------------------------------------------------------|
A|---------------------------------------------------------------------------|
F|---------------------------------------------------------------------------|
C|6----2---------4-----------------------------------------------------------|
G|4----0----2----2-----------------------------------------------------------|
D|----------0----------------------------------------------------------------|
  PM-------------|

Chorus
Play the chorus again but change the rhythm, listen to the song for this!

End on
d|---------------------------------------------------------------------------|
A|---------------------------------------------------------------------------|
F|6--------------------------------------------------------------------------|
C|6--------------------------------------------------------------------------|
G|4--------------------------------------------------------------------------|
D|---------------------------------------------------------------------------|


| PM| Palm-mute
| x   Mute note
===============================================================================
Tap to rate this tab
 
# A B C D E F G H I J K L M N O P Q R S T U V W X Y Z