Song name
# A B C D E F G H I J K L M N O P Q R S T U V W X Y Z

Yellowcard - Violins tab

Help us improve GuitareTab! Take a short survey!
Sorry! It should say Violins Intro! I don't know what happened...


Standard Tuning (EADGBe)


Starts off with...
Gtr 1. (rythm)
  C5
e---------------------------|
B---------------------------|
G-5-5-5-5-5-5-5-5-5-5-5-5-5-|
D-5-5-5-5-5-5-5-5-5-5-5-5-5-|
A-3-3-3-3-3-3-3-3-3-3-3-3-3-|
E---------------------------|

Then goes into...
Gtr. 2 (lead) + Violin
If you've heard the original version by Lagwagon, you'll recognize this because it's the solo.
e-----------------------------------------------------------------------|
B-----5--------5-6--5-6-8-6-5--6-5-------------5-------5-6--5-6--8--5-6-|
G-5-7----7-5-7---------------------7--5-4--5-7---7-5-7------------------|
D-----------------------------------------------------------------------|
A-----------------------------------------------------------------------|
E-----------------------------------------------------------------------|

e-5b-----------|
B------8--6--5-|
G--------------|
D--------------|
A--------------|
E--------------|

Gtr. 1
  C5              G5              E5              F5
e------------------------------------------------------------------|
B------------------------------------------------------------------|
G-5-5-5-5-5-5-5-5-----------------9-9-9-9-9-9-9-9-1010101010101010-|
D-5-5-5-5-5-5-5-5-5-5-5-5-5-5-5-5-9-9-9-9-9-9-9-9-1010101010101010-|
A-3-3-3-3-3-3-3-3-5-5-5-5-5-5-5-5-7-7-7-7-7-7-7-7--8-8-8-8-8-8-8-8-|
E-----------------3-3-3-3-3-3-3-3----------------------------------|

  C5              G5              E5              F5
e-----------------------------------------------------------------|
B-----------------------------------------------------------------|
G-5-5-5-5-5-5-5-5-------------------------------------------------|
D-5-5-5-5-5-5-5-5-5-5-5-5-5-5-5-5-2-2-2-2-2-2-2-2-3-3-3-3-3-3-3-3-|
A-3-3-3-3-3-3-3-3-5-5-5-5-5-5-5-5-2-2-2-2-2-2-2-2-3-3-3-3-3-3-3-3-|
E-----------------3-3-3-3-3-3-3-3-0-0-0-0-0-0-0-0-1-1-1-1-1-1-1-1-|

Related for Violins tab