Song name
# A B C D E F G H I J K L M N O P Q R S T U V W X Y Z

Yellowcard - Paper Walls tab

-------------------------------------------------------------------------------
                        PAPER WALLS - Yellowcard
-------------------------------------------------------------------------------
Tabbed by: Redblink444
Email: michael61@hotmail.co.uk

Tuning: Drop D

Okay, ive been playing this a long time now, pretty sure its 100% correct.
Awesome song. If you have any questions email me. Enjoy!

PLEASE NOTE: Do not follow this tabs strumming exactly. I have put it so
 the change of notes is underneath the words that are sung. Please listen
 to the song for correct strumming patterns


ACOUSTIC INTRO

Play these acoustic chords while choir is singing (dont strum bottom string)

Bm          G              D
Lets burn a hole so we can climb out...(x4)

Finish on D

DISTORTION

1st guitar. Listen to song for timing and strumming.
e|---------------------------------------------------------------------------|
B|---------------------------------------------------------------------------|
G|---------------------------------------------------------------------------|
D|---------------------------------------------------------------------------|X2
A|----2-2-2------2-4-0-----2-2-2---------------------------------------------|
d|-0---------0----------4-----------9---5------------------------------------|
  2nd guitar. Listen to song for timing and strumming                      
e|---------------------------------------------------------------------------|
B|---------------------------------------------------------------------------|
G|---------------------------------------------------------------------------|
D|-00000000000000000000-44444444444-999-555----------------------------------|X2
A|-00000000000000000000-44444444444-999-555----------------------------------|
d|-00000000000000000000-44444444444-999-555----------------------------------|

VERSE 1

Listen to song for strumming


    lets burn a hole so we can climb out...
e|---------------------------------------------------------------------------|
B|---------------------------------------------------------------------------|
G|---------------------------------------------------------------------------|
D|-999999999999---555555555555-----000000000000000000000000------------------|X2
A|-999999999999---555555555555-----000000000000000000000000------------------|
d|-999999999999---555555555555-----000000000000000000000000------------------|

  only thing thats real
e|---------------------------------------------------------------------------|
B|---------------------------------------------------------------------------|
G|---------------------------------------------------------------------------|
D|-222222222222----555555555555----------------------------------------------|
A|-222222222222----555555555555----------------------------------------------|
d|-222222222222----555555555555----------------------------------------------|


these visions weve had of 10 years ago...

e|---------------------------------------------------------------------------|
B|---------------------------------------------------------------------------|
G|---------------------------------------------------------------------------|
D|-999999999999---555555555555-----000000000000000000000000------------------|X2
A|-999999999999---555555555555-----000000000000000000000000------------------|
d|-999999999999---555555555555-----000000000000000000000000------------------|

PRE-CHORUS (listen to song for strumming)

   With streets and these coast lines, we kept this scene alive..
e|---------------------------------------------------------------------------|
B|---------------------------------------------------------------------------|
G|---------------------------------------------------------------------------|
D|------22222222222222--555555555555555--222222222222222-5555555555-xxxxxx---|
A|------22222222222222--555555555555555--222222222222222-5555555555-xxxxxx---|
d|------22222222222222--555555555555555--222222222222222-5555555555-xxxxxx---|

CHORUS(listen to  song for srumming)

  Here I am, still hold onto this dream we had, wont let go of it...
e|---------------------------------------------------------------------------|
B|---------------------------------------------------------------------------|
G|---------------------------------------------------------------------------|X2
D|-000000000000000000000000000---999999999999---555555555555-----------------|
A|-000000000000000000000000000---999999999999---555555555555-----------------|
d|-000000000000000000000000000---999999999999---555555555555-----------------|

POST CORUS (listen to song for strumming and timing)

e|---------------------------------------------------------------------------|
B|---------------------------------------------------------------------------|
G|---------------------------------------------------------------------------|
D|-2-222222-2222-5-55555-5555------------------------------------------------|
A|-2-222222-2222-5-55555-5555------------------------------------------------|
d|-2-222222-2222-5-55555-5555------------------------------------------------|

VERSE 2

  dont listen to close there words are like guns...(again, listen to song)
e|---------------------------------------------------------------------------|
B|---------------------------------------------------------------------------|
G|---------------------------------------------------------------------------|
D|-99999999999999999-----5555555555555555-----000000000000000000000000-------|X4
A|-99999999999999999-----5555555555555555-----000000000000000000000000-------|
d|-99999999999999999-----5555555555555555-----000000000000000000000000-------|

PRE-CHORUS


  we'll kiss them all goodbbbbbbbbbyyyyyyyeeeeee (goodbye)
e|---------------------------------------------------------------------------|
B|---------------------------------------------------------------------------|
G|---------------------------------------------------------------------------|
D|-222222222222222222222---5555555555555555555-xxxxxx------------------------|
A|-222222222222222222222---5555555555555555555-xxxxxx------------------------|
d|-222222222222222222222---5555555555555555555-xxxxxx------------------------|

CHORUS(listen to  song for srumming)

  Here I am, still hold onto this dream we had, wont let go of it...
e|---------------------------------------------------------------------------|
B|---------------------------------------------------------------------------|
G|---------------------------------------------------------------------------|X2
D|-000000000000000000000000000---999999999999---555555555555-----------------|
A|-000000000000000000000000000---999999999999---555555555555-----------------|
d|-000000000000000000000000000---999999999999---555555555555-----------------|

Here I stand,wont turn back again, wont leave you know how hard its been
e|---------------------------------------------------------------------------|
B|---------------------------------------------------------------------------|
G|---------------------------------------------------------------------------|X2
D|-000000000000000000000000000-----999999999999---5555555555-----------------|
A|-000000000000000000000000000-----999999999999---5555555555-----------------|
d|-000000000000000000000000000-----999999999999---5555555555-----------------|

INTERLUDE

I cant be bothered to tab 1st guitar, so here is 2nd guitar (Listen to song)
e|---------------------------------------------------------------------------|
B|---------------------------------------------------------------------------|
G|---------------------------------------------------------------------------|X2
D|-00000000000-444444-999-555-00000000000-444444-999-222---------------------|
A|-00000000000-444444-999-555-00000000000-444444-999-222---------------------|
d|-00000000000-444444-999-555-00000000000-444444-999-222---------------------|

BRIDGE
play these acoustic chords

Bm             G                     D
Lets take what hurts and write it all down
Bm             G                     D
On these paper walls and this empty house

  and when our ink runs out, well burn it to the groooouuunndd(ground)
e|---------------------------------------------------------------------------|
B|---------------------------------------------------------------------------|
G|---------------------------------------------------------------------------|
D|-22222222222222--555555555555--222222222222--5555555555555--xxxxxx---------|
A|-22222222222222--555555555555--222222222222--5555555555555--xxxxxx---------|
d|-22222222222222--555555555555--222222222222--5555555555555--xxxxxx---------|

 
CHORUS

Here I am, still hold onto this dream we had, wont let go of it...
e|---------------------------------------------------------------------------|
B|---------------------------------------------------------------------------|
G|---------------------------------------------------------------------------|X2
D|-000000000000000000000000000---999999999999---555555555555-----------------|
A|-000000000000000000000000000---999999999999---555555555555-----------------|
d|-000000000000000000000000000---999999999999---555555555555-----------------|

Here I stand,wont turn back again, wont leave you know how hard its been..
e|---------------------------------------------------------------------------|
B|---------------------------------------------------------------------------|
G|---------------------------------------------------------------------------|X2
D|-000000000000000000000000000-----999999999999---5555555555-----------------|
A|-000000000000000000000000000-----999999999999---5555555555-----------------|
d|-000000000000000000000000000-----999999999999---5555555555-----------------|

ENDING

1st guitar. Listen to song for timing and strumming.
e|---------------------------------------------------------------------------|
B|---------------------------------------------------------------------------|
G|------------------------------------------------4-4-4----------------------|
D|------------------------------------------------4-4-4----------------------|
A|----2-2-2------2-4-0-----2-2-2------------------2-2-2----------------------|
d|-0---------0----------4-----------9---5------0-----------------------------|
  2nd guitar. Listen to song for timing and strumming                      
e|---------------------------------------------------------------------------|
B|---------------------------------------------------------------------------|
G|------------------------------------------------4-4-4----------------------|
D|-00000000000000000000-44444444444-999-555----00-4-4-4----------------------|
A|-00000000000000000000-44444444444-999-555----00-2-2-2----------------------|
d|-00000000000000000000-44444444444-999-555----00----------------------------|


| /  slide up
| \  slide down 
| h  hammer-on
| p  pull-off
| ~  vibrato
| +  harmonic
| x  Mute note
===============================================================================
Tap to rate this tab
# A B C D E F G H I J K L M N O P Q R S T U V W X Y Z