Song name
# A B C D E F G H I J K L M N O P Q R S T U V W X Y Z

Yellowcard - One Year Six Months chords

Highlighted       Show chord diagrams
Hey, this is my first ever tab. so i hope its alright for everyone!
email me if you have any corrections/questions. x-emmafrances-x@hotmail.com
Emma.
INTRO.
E--15--15---13---12---10---10---10---10---13---13---12---10----8----8----8--|
B---0---0----0----0----0----0----0----0----0----0----0----0----0----0----0--|
G---------------------------------------------------------------------------|
D---------------------------------------------------------------------------|
A---------------------------------------------------------------------------|
E---------------------------------------------------------------------------|

E--08---15---15---13---12---10---10---10---12----8----8----7----8-|
B---0----0----0----0----0----0----0----0----0----0----0----0----0-|
G-----------------------------------------------------------------|
D-----------------------------------------------------------------|
A-----------------------------------------------------------------|
E-----------------------------------------------------------------|


E--15--15---13---12---10---10---10---10---13---13---12---10----8----8----8--|
B---0---0----0----0----0----0----0----0----0----0----0----0----0----0----0--|
G---------------------------------------------------------------------------|
D---------------------------------------------------------------------------|
A---------------------------------------------------------------------------|
E---------------------------------------------------------------------------|

E---8---15---15---13---12---10---10---10---12----8----8----7----8-|
B---0----0----0----0----0----0----0----0----0----0----0----0----0-|
G-----------------------------------------------------------------|
D-----------------------------------------------------------------|
A-----------------------------------------------------------------|
E-----------------------------------------------------------------|


Verse1:
G          D                  Em           G
Sew this up with threads of reason and regret
C9                    G          C    D
So I will not forget. I will not forget
G           D                      Em
How this felt one year six months ago
G           D           C9          Em
I know I cannot forget. I cannot forget


Chorus:
G   D   C   Em G        G          
 C         C9      D
I'm falling into memories of you and things we used to do
D  C   G  Em
Follow me there
G           C9
A beautiful somewhere
G                  D          Em
A place that I can share with you


Verse2:
G          D                  Em           G
I can tell that you don't know me anymore
C9                    G          C    D
It's easy to forget, sometimes we just forget
G           D                      Em
And being on this road is anything but sure
G           D         C9            Em
Maybe we'll forget, I hope we don't forget


Chorus:
G   D   C   Em G        G          
 C         C9      D
I'm falling into memories of you and things we used to do
D  C   G  Em
Follow me there
G           C9
A beautiful somewhere
G                  D          Em
A place that I can share with you


INTRO.
E--15--15---13---12---10---10---10---10---13---13---12---10----8----8----8--|
B---0---0----0----0----0----0----0----0----0----0----0----0----0----0----0--|
G---------------------------------------------------------------------------|
D---------------------------------------------------------------------------|
A---------------------------------------------------------------------------|
E---------------------------------------------------------------------------|

E--08---15---15---13---12---10---10---10---12----8----8----7----8-|
B---0----0----0----0----0----0----0----0----0----0----0----0----0-|
G-----------------------------------------------------------------|
D-----------------------------------------------------------------|
A-----------------------------------------------------------------|
E-----------------------------------------------------------------|


E--15--15---13---12---10---10---10---10---13---13---12---10----8----8----8--|
B---0---0----0----0----0----0----0----0----0----0----0----0----0----0----0--|
G---------------------------------------------------------------------------|
D---------------------------------------------------------------------------|
A---------------------------------------------------------------------------|
E---------------------------------------------------------------------------|

E---8---15---15---13---12---10---10---10---12----8----8----7----8-|
B---0----0----0----0----0----0----0----0----0----0----0----0----0-|
G-----------------------------------------------------------------|
D-----------------------------------------------------------------|
A-----------------------------------------------------------------|
E-----------------------------------------------------------------|


Bridge:
G       Em      D    Em           C9
So many nights, legs tangled tight
G       C9      D          Em
Wrap me up in a dream with you
G              C     Em         D
Close up these eyes, try not to cry
G             Em     D       C9         Em  
       D
All that I've got to pull me through is memories of you
Em          D
Memories of you
Em          D
Memories of you
Em          D
Memories of you


Chrous:
G   D   C   Em G        G          
 C         C9      D
I'm falling into memories of you and things we used to do
D  C   G  Em
Follow me there
G           C9
A beautiful somewhere
G                  D          Em  D  E--3
A place that I can share with you    B--3
                                     G---
                                     D---
                                     A---
                                     E---

Thankyou Guys!
Tap to rate this tab
# A B C D E F G H I J K L M N O P Q R S T U V W X Y Z