Song name
# A B C D E F G H I J K L M N O P Q R S T U V W X Y Z

Yellowcard - Only One Acoustic tab

Strumming:down down up up down up
watch this video for help http://www.youtube.com/watch?v=ppc2yf6xRDw
this is my first tab so if anything is wrong just tell me
comment and rate plz
Verse 1:
E|-0---0---0---0---0---0---0---0--------------------------------------------|
B|-0---0---0---0---0---0---0---0--------------------------------------------|
G|-1---1---2---2---4---6---2---2--------------------------------------------|
D|--------------------------------------------------------------------------|
A|--------------------------------------------------------------------------|
E|--------------------------------------------------------------------------|
Pre Chorus:
E|--------------------------------------------------------------------------|
B|--------------------------------------------------------------------------|
G|-4---6---2---4------------------------------------------------------------|
D|-4---6---2---4------------------------------------------------------------|
A|-2---4---0---2------------------------------------------------------------|
E|--------------------------------------------------------------------------|
Chorus:
E|----------------------------------------------------------------------------|
B|----------------------------------------------------------------------------|
G|-6---2---6---4--------------------------------------------------------------|
D|-6---2---6---4--------------------------------------------------------------|
A|-4---0---4---2--------------------------------------------------------------|
E|----------------------------------------------------------------------------|
Verse 2:
E|-0---0---0---0---0---0---0---0--------------------------------------------|
B|-0---0---0---0---0---0---0---0--------------------------------------------|
G|-1---1---2---2---4---6---2---2--------------------------------------------|
D|--------------------------------------------------------------------------|
A|--------------------------------------------------------------------------|
E|--------------------------------------------------------------------------|
Pre Chorus:
E|--------------------------------------------------------------------------|
B|--------------------------------------------------------------------------|
G|-4---6---2---4------------------------------------------------------------|
D|-4---6---2---4------------------------------------------------------------|
A|-2---4---0---2------------------------------------------------------------|
E|--------------------------------------------------------------------------|
Chorus:
E|--------------------------------------------------------------------------|
B|--------------------------------------------------------------------------|
G|-6---2---6---4------------------------------------------------------------|
D|-6---2---6---4------------------------------------------------------------|
A|-4---0---4---2------------------------------------------------------------|
E|--------------------------------------------------------------------------|
Interlude:
E|---0------0------0------0-------------------------------------------------|
B|-----0------0------0-------0----------------------------------------------|
G|-1------1------2------2---------------------------------------------------|
D|--------------------------------------------------------------------------|
A|--------------------------------------------------------------------------|
E|--------------------------------------------------------------------------|
Lyrics:
Verse 1:
 Broken this fragile thing now
 And I can't, I can't pick up the pieces
 And I've thrown my words all around
 But I can't, I can't give you a reason
Pre Chorus:
 I feel so broken up (so broken up)
 And I give up (I give up)
 I just want to tell you so you know
Chorus:
 Here I go, scream my lungs out and try to get to you
 You are my only one
 I let go, there's just no one that gets me like you do
 You are my only, my only one
Verse 2:
 Made my mistakes, let you down
 And I can't, I can't hold on for too long
 Ran my whole life in the ground
 And I can't, I can't get up when you're gone
Pre Chorus:
 And something's breaking up (breaking up)
 I feel like giving up (like giving up)
 I won't walk out until you know
Chorus:
 Here I go, scream my lungs out and try to get to you
 You are my only one
 I let go, there's just no one who gets me like you do
 You are my only, my only one
 Here I go so dishonestly
 Leave a note for you my only one
 And I know you can see right through me
 So let me go and you will find someone
 Here I go, scream my lungs out and try to get to you
 You are my only one
 I let go, there's just no one, no one like you
 You are my only, my only one
Interlude:
 My only one
 My only one
 My only one
 You are my only, my only one
Tap to rate this tab
 
# A B C D E F G H I J K L M N O P Q R S T U V W X Y Z