Yellowcard - Life Of A Salesman tab

---------------------------------
 Life of a SalesMan ~ Yellowcard
---------------------------------
Album: Ocean Avenue

Tabbed By: RussCool
(I know, pretty lame name)

Tuning: STANDARD

Timing: 4/4

Tempo: 184

Key: B

Dynamic: f

INTRO
PRE-VERSE
VERSE
PRE-CHORUS
CHORUS
PRE-VERSE
BRIDGE
PRE-CHORUS
CHORUS
INTERLUDE
SOLO
CHORUS
OUTRO



INTRO

  Guitar 1   (Flanger)
E|----------------------|----------------------|----------------------|----------------------|
B|----------------------|----------------------|----------------------|----------------------|
G|----------------------|----------------------|----------------------|----------------------|
D|----------------------|----------------------|----------------------|----------------------|
A|---2-2-2-2-2-2-2-2----|---2-2-2-2-2-2-2-2----|---2-2-2-2-2-2-2-2----|---2-2-2-2-2-2-2-2----|
E|----------------------|----------------------|----------------------|----------------------|



PRE-VERSE

  Guitar 1   (Flanger)
E|----------------------|----------------------|----------------------|----------------------|
B|----------------------|----------------------|----------------------|----------------------|
G|----------------------|----------------------|----------------------|----------------------|
D|----------------------|----------------------|----------------------|----------------------|
A|---2-2-2-2-2-2-2-2----|---2-2-2-2-2-2-2-2----|---2-2-2-2-2-2-2-2----|---2-2-2-2-2-2-2-2----|
E|----------------------|----------------------|----------------------|----------------------|

E|----------------------|----------------------|----------------------|----------------------|
B|----------------------|----------------------|----------------------|----------------------|
G|----------------------|----------------------|----------------------|----------------------|
D|----------------------|----------------------|----------------------|----------------------|
A|---2-2-2-2-2-2-2-2----|---2-2-2-2-2-2-2-2----|---2-2-2-2-2-2-2-2----|---2-2-2-2-2-2-2-2----|
E|----------------------|----------------------|----------------------|----------------------|

E|----------------------|----------------------|----------------------|----------------------|
B|----------------------|----------------------|----------------------|----------------------|
G|----------------------|----------------------|----------------------|----------------------|
D|----------------------|----------------------|----------------------|----------------------|
A|---2-2-2-2-2-2-2-2----|---2-2-2-2-2-2-2-2----|---2-2-2-2-2-2-2-2----|---2-2-2-2-2-2-2-2----|
E|----------------------|----------------------|----------------------|----------------------|

E|----------------------|----------------------|----------------------|----------------------|
B|----------------------|----------------------|----------------------|----------------------|
G|----------------------|----------------------|----------------------|----------------------|
D|----------------------|----------------------|----------------------|----------------------|
A|---2-2-2-2-2-2-2-2----|---2-2-2-2-2-2-2-2----|---2-2-2-2-2-2-2-2----|---2-2-2-2-2-2-2-2----|
E|----------------------|----------------------|----------------------|----------------------|

  Guitar 2
E|-------------------|---------------------|-------------------|---------------------|
B|-------------------|---------------------|-------------------|---------------------|
G|-------------------|---------------------|-------------------|---------------------|
D|-------------------|---------------------|---4-4--4--4--4----|---(4)-4--4--4--4----|
A|---6-6--6--6--6----|---(6)-6--6--6--6----|---2-2--2--2--2----|---(2)-2--2--2--2----|
E|---4-4--4--4--4----|---(4)-4--4--4--4----|-------------------|---------------------|

E|-------------------|---------------------|-------------------|-------------------|
B|-------------------|---------------------|-------------------|-------------------|
G|-------------------|---------------------|-------------------|-------------------|
D|-------------------|---------------------|---4-4--4--4--4----|-------------------|
A|---2-2--2--2--2----|---(2)-2--2--2--2----|---2-2--2--2--2----|---2-2--2--2--2----|
E|---0-0--0--0--0----|---(0)-0--0--0--0----|-------------------|---0-0--0--0--0----|

E|-------------------|---------------------|-------------------|---------------------|
B|-------------------|---------------------|-------------------|---------------------|
G|-------------------|---------------------|-------------------|---------------------|
D|-------------------|---------------------|---4-4--4--4--4----|---(4)-4--4--4--4----|
A|---6-6--6--6--6----|---(6)-6--6--6--6----|---2-2--2--2--2----|---(2)-2--2--2--2----|
E|---4-4--4--4--4----|---(4)-4--4--4--4----|-------------------|---------------------|
                                                               
E|-------------------|---------------------|-------------------|--------------------|
B|-------------------|---------------------|-------------------|--------------------|
G|-------------------|---------------------|-------------------|--------------------|
D|-------------------|---------------------|---4-4--4--4--4----|--------------------|
A|---2-2--2--2--2----|---(2)-2--2--2--2----|---2-2--2--2--2----|---2-2--2--2-2-2----|
E|---0-0--0--0--0----|---(0)-0--0--0--0----|-------------------|---0-0--0--0-0-0----|
                                                                        PM . . .

  Guitar 3   (Violin)
E|---12--11-------------|--14--12--11-----------|---12--11-------------|---16-14-12----------------|
B|-----------12--14-----|-------------14-12-----|-----------12--14-----|------------16-14-12-------|
G|----------------------|-----------------------|----------------------|---------------------16----|
D|----------------------|-----------------------|----------------------|---------------------------|
A|----------------------|-----------------------|----------------------|---------------------------|
E|----------------------|-----------------------|----------------------|---------------------------|

E|---12--11-------------|--14--12--11-----------|---12--11-------------|---16-14-12----------------|
B|-----------12--14-----|-------------14-12-----|-----------12--14-----|------------16-14-12-------|
G|----------------------|-----------------------|----------------------|---------------------16----|
D|----------------------|-----------------------|----------------------|---------------------------|
A|----------------------|-----------------------|----------------------|---------------------------|
E|----------------------|-----------------------|----------------------|---------------------------|

E|---12--11-------------|--14--12--11-----------|---12--11-------------|---16-14-12----------------|
B|-----------12--14-----|-------------14-12-----|-----------12--14-----|------------16-14-12-------|
G|----------------------|-----------------------|----------------------|---------------------16----|
D|----------------------|-----------------------|----------------------|---------------------------|
A|----------------------|-----------------------|----------------------|---------------------------|
E|----------------------|-----------------------|----------------------|---------------------------|

E|---12--11-------------|--14--12--11-----------|---12--11-------------|---16-14-12----------------|
B|-----------12--14-----|-------------14-12-----|-----------12--14-----|------------16-14-12-------|
G|----------------------|-----------------------|----------------------|---------------------16----|
D|----------------------|-----------------------|----------------------|---------------------------|
A|----------------------|-----------------------|----------------------|---------------------------|
E|----------------------|-----------------------|----------------------|---------------------------|



VERSE

  Guitar 1   (Flanger)
E|----------------------|----------------------|----------------------|----------------------|
B|----------------------|----------------------|----------------------|----------------------|
G|----------------------|----------------------|----------------------|----------------------|
D|----------------------|----------------------|----------------------|----------------------|
A|---2-2-2-2-2-2-2-2----|---2-2-2-2-2-2-2-2----|---2-2-2-2-2-2-2-2----|----------------------|
E|----------------------|----------------------|----------------------|---2-2-2-2-2-2-2-2----|

E|----------------------|----------------------|----------------------|----------------------|
B|----------------------|----------------------|----------------------|----------------------|
G|----------------------|----------------------|----------------------|----------------------|
D|----------------------|----------------------|----------------------|----------------------|
A|----------------------|----------------------|---2-2-2-2-2-2-2-2----|----------------------|
E|---0-0-0-0-0-0-0-0----|---4-4-4-4-2-2-2-2----|----------------------|---2-2-2-2-2-2-2-2----|

E|----------------------|----------------------|----------------------|
B|----------------------|----------------------|----------------------|
G|----------------------|----------------------|----------------------|
D|----------------------|----------------------|----------------------|
A|----------------------|----------------------|----------------------|
E|---0-0-0-0-0-0-0-0----|---4-4-4-4-4-4-4-4----|---2-2-2-2-2-2-2-2----|


  Guitar 2
E|----------------------|----------------------|----------------------|----------------------|
B|----------------------|----------------------|----------------------|----------------------|
G|----------------------|----------------------|----------------------|----------------------|
D|----------------------|----------------------|----------------------|----------------------|
A|----------------------|----------------------|----------------------|----------------------|
E|----------------------|----------------------|----------------------|----------------------|

E|----------------------|----------------------|--------------------|--------------------|
B|----------------------|----------------------|--------------------|--------------------|
G|----------------------|----------------------|--------------------|--------------------|
D|----------------------|----------------------|---4--4--4-4-4-4----|--------------------|
A|----------------------|----------------------|---2--2--2-2-2-2----|---4--4--4-4-4-4----|
E|----------------------|----------------------|--------------------|---2--2--2-2-2-2----|

E|--------------------|----------------------|----------------------|
B|--------------------|----------------------|----------------------|
G|--------------------|----------------------|----------------------|
D|--------------------|----------------------|----------------------|
A|---2--2--2-2-2-2----|---6-6-6-6-6-6-6-6----|---4-4-4-4-4-4-4-4----|
E|---0--0--0-0-0-0----|---4-4-4-4-4-4-4-4----|---2-2-2-2-2-2-2-2----|



PRE-CHORUS

  Guitar 2
E|-----------------|------------------|-----------------|------------------|
B|-----------------|------------------|-----------------|------------------|
G|-----------------|------------------|-----------------|------------------|
D|-----------------|------------------|-----------------|------------------|
A|---2-2-----------|---2-2---2-2------|---4-4-----------|---4-4---4-4------|
E|---0-0-----------|---0-0---0-0------|---2-2-----------|---2-2---2-2------|
  PM . .               . .   . .          . .               . .   . .


   Guitar 3   (Violin)
E|---12---11-----|---14--12-----|---16--14-----|---14--12-----|
B|---------------|--------------|--------------|--------------|
G|---------------|--------------|--------------|--------------|
D|---------------|--------------|--------------|--------------|
A|---------------|--------------|--------------|--------------|
E|---------------|--------------|--------------|--------------|



CHORUS

  Guitar 2
E|----------------------|----------------------|----------------------|----------------------|
B|----------------------|----------------------|----------------------|----------------------|
G|----------------------|----------------------|----------------------|----------------------|
D|---4-4-4-4-4-4-4-4----|---4-4-4-4-4-4-4-4----|----------------------|----------------------|
A|---2-2-2-2-2-2-2-2----|---2-2-2-2-2-2-2-2----|---2-2-2-2-2-2-2-2----|---2-2-2-2-2-2-2-2----|
E|----------------------|----------------------|---0-0-0-0-0-0-0-0----|---0-0-0-0-0-0-0-0----|

E|----------------------|----------------------|----------------------|----------------------|
B|----------------------|----------------------|----------------------|----------------------|
G|----------------------|----------------------|----------------------|----------------------|
D|----------------------|----------------------|----------------------|----------------------|
A|---6-6-6-6-6-6-6-6----|---6-6-6-6-6-6-6-6----|---4-4-4-4-4-4-4-4----|---4-4-4-4-4-4-4-4----|
E|---4-4-4-4-4-4-4-4----|---4-4-4-4-4-4-4-4----|---2-2-2-2-2-2-2-2----|---2-2-2-2-2-2-2-2----|

E|----------------------|----------------------|----------------------|----------------------|
B|----------------------|----------------------|----------------------|----------------------|
G|----------------------|----------------------|----------------------|----------------------|
D|---4-4-4-4-4-4-4-4----|---4-4-4-4-4-4-4-4----|----------------------|----------------------|
A|---2-2-2-2-2-2-2-2----|---2-2-2-2-2-2-2-2----|---2-2-2-2-2-2-2-2----|---2-2-2-2-2-2-2-2----|
E|----------------------|----------------------|---0-0-0-0-0-0-0-0----|---0-0-0-0-0-0-0-0----|

E|----------------------|----------------------|----------------------|----------------------|
B|----------------------|----------------------|----------------------|----------------------|
G|----------------------|----------------------|----------------------|----------------------|
D|----------------------|----------------------|----------------------|----------------------|
A|---6-6-6-6-6-6-6-6----|---6-6-6-6-6-6-6-6----|---4-4-4-4-4-4-4-4----|---4-4-4-4-4-4-4-4----|
E|---4-4-4-4-4-4-4-4----|---4-4-4-4-4-4-4-4----|---2-2-2-2-2-2-2-2----|---2-2-2-2-2-2-2-2----|



PRE-VERSE

  Guitar 1   (Flanger)
E|----------------------|----------------------|----------------------|----------------------|
B|----------------------|----------------------|----------------------|----------------------|
G|----------------------|----------------------|----------------------|----------------------|
D|----------------------|----------------------|----------------------|----------------------|
A|---2-2-2-2-2-2-2-2----|---2-2-2-2-2-2-2-2----|---2-2-2-2-2-2-2-2----|---2-2-2-2-2-2-2-2----|
E|----------------------|----------------------|----------------------|----------------------|

E|----------------------|----------------------|----------------------|----------------------|
B|----------------------|----------------------|----------------------|----------------------|
G|----------------------|----------------------|----------------------|----------------------|
D|----------------------|----------------------|----------------------|----------------------|
A|---2-2-2-2-2-2-2-2----|---2-2-2-2-2-2-2-2----|---2-2-2-2-2-2-2-2----|---2-2-2-2-2-2-2-2----|
E|----------------------|----------------------|----------------------|----------------------|


  Guitar 2
E|-------------------|---------------------|-------------------|---------------------|
B|-------------------|---------------------|-------------------|---------------------|
G|-------------------|---------------------|-------------------|---------------------|
D|-------------------|---------------------|---4-4--4--4--4----|---(4)-4--4--4--4----|
A|---6-6--6--6--6----|---(6)-6--6--6--6----|---2-2--2--2--2----|---(2)-2--2--2--2----|
E|---4-4--4--4--4----|---(4)-4--4--4--4----|-------------------|---------------------|

E|-------------------|---------------------|-------------------|-------------------|
B|-------------------|---------------------|-------------------|-------------------|
G|-------------------|---------------------|-------------------|-------------------|
D|-------------------|---------------------|---4-4--4--4--4----|-------------------|
A|---2-2--2--2--2----|---(2)-2--2--2--2----|---2-2--2--2--2----|---2-2--2--2--2----|
E|---0-0--0--0--0----|---(0)-0--0--0--0----|-------------------|---0-0--0--0--0----|


  Guitar 3   (Violin)
E|---12--11-------------|--14--12--11-----------|---12--11-------------|---16-14-12----------------|
B|-----------12--14-----|-------------14-12-----|-----------12--14-----|------------16-14-12-------|
G|----------------------|-----------------------|----------------------|---------------------16----|
D|----------------------|-----------------------|----------------------|---------------------------|
A|----------------------|-----------------------|----------------------|---------------------------|
E|----------------------|-----------------------|----------------------|---------------------------|

E|---12--11-------------|--14--12--11-----------|---12--11-------------|---16-14-12----------------|
B|-----------12--14-----|-------------14-12-----|-----------12--14-----|------------16-14-12-------|
G|----------------------|-----------------------|----------------------|---------------------16----|
D|----------------------|-----------------------|----------------------|---------------------------|
A|----------------------|-----------------------|----------------------|---------------------------|
E|----------------------|-----------------------|----------------------|---------------------------|



BRIDGE

  Guitar 1   (Flanger)
E|---------------------|---------------------|---------------------|---------------------|
B|---------------------|---------------------|---------------------|---------------------|
G|---------------------|---------------------|---------------------|---------------------|
D|---------------------|---------------------|---------------------|---------------------|
A|---2-2-2-2-2-2-2-----|---2-2-2-2-2-2-2-----|---------------------|---------------------|
E|---------------------|---------------------|---------------------|---------------------|

E|---------------------|---------------------|---------------------|---------------------|
B|---------------------|---------------------|---------------------|---------------------|
G|---------------------|---------------------|---------------------|---------------------|
D|---------------------|---------------------|---------------------|---------------------|
A|---------------------|---------------------|---------------------|---------------------|
E|---------------------|---------------------|---------------------|---------------------|

E|---------------------|---------------------|---------------------|
B|---------------------|---------------------|---------------------|
G|---------------------|---------------------|---------------------|
D|---------------------|---------------------|---------------------|
A|---------------------|---------------------|---------------------|
E|---------------------|---------------------|---------------------|


  Guitar 2
E|---------------------|---------------------|------------------|------------------|
B|---------------------|---------------------|------------------|------------------|
G|---------------------|---------------------|------------------|------------------|
D|---------------------|---------------------|---4--4--4--4-----|------------------|
A|---------------------|---------------------|---2--2--2--2-----|---4--4--4--4-----|
E|---------------------|---------------------|------------------|---2--2--2--2-----|

E|------------------|------------------|------------------|------------------|
B|------------------|------------------|------------------|------------------|
G|------------------|------------------|------------------|------------------|
D|------------------|------------------|---4--4--4--4-----|------------------|
A|---2--2--2--2-----|---6--6--4--4-----|---2--2--2--2-----|---4--4--4--4-----|
E|---0--0--0--0-----|---4--4--2--2-----|------------------|---2--2--2--2-----|

E|------------------|---------------------|---------------------|
B|------------------|---------------------|---------------------|
G|------------------|---------------------|---------------------|
D|------------------|---------------------|---------------------|
A|---2--2--2--2-----|---6-6-6-6-6-6-6-6---|---4-4-4-4-4-4-4-4---|
E|---0--0--0--0-----|---4-4-4-4-4-4-4-4---|---2-2-2-2-2-2-2-2---|



PRE-CHORUS

CHORUS



INTERLUDE

  Guitar 2
E|-----------|----------------|-----------|-----------------|
B|-----------|----------------|-----------|-----------------|
D|---4-------|---(4)---3------|---4-------|---(4)---11------|
G|---X-------|---(X)---X------|---X-------|---(X)----X------|
A|---2-------|---(2)---1------|---2-------|---(2)----9------|
E|-----------|----------------|-----------|-----------------|

E|-----------|----------------|-----------|------------------|
B|-----------|----------------|-----------|------------------|
D|---4-------|---(4)---3------|---4-------|---(4)---4--8-----|
G|---X-------|---(X)---X------|---X-------|---(X)------------|
A|---2-------|---(2)---1------|---2-------|---(2)------------|
E|-----------|----------------|-----------|------------------|



SOLO

  Guitar 1
E|----------------------|----------------------|----------------------|----------------------|
B|----------------------|----------------------|----------------------|----------------------|
G|----------------------|----------------------|----------------------|----------------------|
D|----------------------|----------------------|---4-4-4-4-4-4-4-4----|----------------------|
A|---6-6-6-6-6-6-6-6----|---2-2-2-2-2-2-2-2----|---2-2-2-2-2-2-2-2----|---4-4-4-4-4-4-4-4----|
E|---4-4-4-4-4-4-4-4----|---0-0-0-0-0-0-0-0----|----------------------|---2-2-2-2-2-2-2-2----|

E|----------------------|----------------------|----------------------|----------------------|
B|----------------------|----------------------|----------------------|----------------------|
G|----------------------|----------------------|----------------------|----------------------|
D|----------------------|----------------------|---4-4-4-4-4-4-4-4----|----------------------|
A|---6-6-6-6-6-6-6-6----|---2-2-2-2-2-2-2-2----|---2-2-2-2-2-2-2-2----|---4-4-4-4-4-4-4-4----|
E|---4-4-4-4-4-4-4-4----|---0-0-0-0-0-0-0-0----|----------------------|---2-2-2-2-2-2-2-2----|

E|----------------------|----------------------|----------------------|----------------------|
B|----------------------|----------------------|----------------------|----------------------|
G|----------------------|----------------------|----------------------|----------------------|
D|----------------------|----------------------|---4-4-4-4-4-4-4-4----|---4-4-4-4-4-4-4-4----|
A|---6-6-6-6-6-6-6-6----|---2-2-2-2-2-2-2-2----|---2-2-2-2-2-2-2-2----|---2-2-2-2-2-2-2-2----|
E|---4-4-4-4-4-4-4-4----|---0-0-0-0-0-0-0-0----|----------------------|----------------------|
                                                                       PM . . . . . . . .
   

  Guitar 2          /-3-\                    /-3-\
E|--------------|--------------------|-----------------------|------------------|
B|--------------|---4h5p4---4-5------|-----------------------|------------------|
G|---6---4-6----|---------6----------|-------6h8p6---6-8-----|---6--8--6--4-----|
D|--------------|--------------------|---6-9-------9---------|------------------|
A|--------------|--------------------|-----------------------|------------------|
E|--------------|--------------------|-----------------------|------------------|

                        /--3--\ /--3--\ /--3--\ /--3--\
E|------------------|---------------------------11h12h14----|---12-------|-------------------|
B|---12--11--9------|---9h11h12-9h11h12-9h11h12-------------|------------|-------------------|
G|------------------|---------------------------------------|------------|-------------------|
D|------------------|---------------------------------------|------------|---14--13--14------|
A|------------------|---------------------------------------|------------|-------------------|
E|------------------|---------------------------------------|------------|-------------------|

                                                      /--3--\
E|------------------------------|---------------------14p12p11----|
B|------------------------------|---------------------------------|
G|------------11-------11-14----|---------11-14-11----------------|
D|---11-13-14----13-14----------|---13-14----------14-------------|
A|------------------------------|---------------------------------|
E|------------------------------|---------------------------------|

E|------------------------|------------------|
B|---12-14-11--12--14-----|---16-------------|
G|------------------------|-------16---------|
D|------------------------|------------------|
A|------------------------|------------------|
E|------------------------|------------------|




CHORUS

  Guitar 1
E|----------------------|----------------------|----------------------|
B|----------------------|----------------------|----------------------|
G|----------------------|----------------------|----------------------|
D|----------------------|----------------------|-----------4-4-4-4----|
A|---2-2-2-2-2-2-2-2----|---6-6-6-6-6-6-6-6----|---4-4-4-4-4-4-4-4----|
E|---0-0-0-0-0-0-0-0----|---4-4-4-4-4-4-4-4----|---2-2-2-2-2-2-2-2----|
  PM . . . . . . . .        . . . . . . . .        . . . .


  Guitar 2
E|--------------|----------------------|----------------------|
B|--------------|----------------------|----------------------|
G|---(16)-------|----------------------|----------------------|
D|--------------|----------------------|----------------------|
A|--------------|----------------------|----------------------|
E|--------------|----------------------|----------------------|

      ~~~~~~~~~~~~~~~~~~~~~~~~~~~~~~~~~~~~~~~~~~~~~~~~~~~~~~~~~~~~~~~~~~~~~~~~~~~~~~~~


  Guitar 2
E|----------------------|----------------------|----------------------|----------------------|
B|----------------------|----------------------|----------------------|----------------------|
G|----------------------|----------------------|----------------------|----------------------|
D|---4-4-4-4-4-4-4-4----|---4-4-4-4-4-4-4-4----|----------------------|----------------------|
A|---2-2-2-2-2-2-2-2----|---2-2-2-2-2-2-2-2----|---2-2-2-2-2-2-2-2----|---2-2-2-2-2-2-2-2----|
E|----------------------|----------------------|---0-0-0-0-0-0-0-0----|---0-0-0-0-0-0-0-0----|

E|----------------------|----------------------|----------------------|----------------------|
B|----------------------|----------------------|----------------------|----------------------|
G|----------------------|----------------------|----------------------|----------------------|
D|----------------------|----------------------|----------------------|----------------------|
A|---6-6-6-6-6-6-6-6----|---6-6-6-6-6-6-6-6----|---4-4-4-4-4-4-4-4----|---4-4-4-4-4-4-4-4----|
E|---4-4-4-4-4-4-4-4----|---4-4-4-4-4-4-4-4----|---2-2-2-2-2-2-2-2----|---2-2-2-2-2-2-2-2----|




OUTRO

  Guitar 1   (Flanger)
E|------------------|------------------|------------------|------------------|
B|------------------|------------------|------------------|------------------|
G|------------------|------------------|------------------|------------------|
D|------------------|------------------|------------------|------------------|
A|------------------|------------------|------------------|------------------|
E|------------------|------------------|------------------|------------------|

E|------------------|------------------|------------------|------------------|
B|------------------|------------------|------------------|------------------|
G|------------------|------------------|------------------|------------------|
D|------------------|------------------|------------------|------------------|
A|------------------|------------------|------------------|------------------|
E|------------------|------------------|------------------|------------------|

E|------------------|------------------|------------------|------------------|
B|------------------|------------------|------------------|------------------|
G|------------------|------------------|------------------|------------------|
D|------------------|------------------|------------------|------------------|
A|------------------|------------------|------------------|------------------|
E|------------------|------------------|------------------|------------------|

E|------------------|------------------|------------------|------------------|
B|------------------|------------------|------------------|------------------|
G|------------------|------------------|------------------|------------------|
D|------------------|------------------|------------------|------------------|
A|------------------|------------------|------------------|------------------|
E|------------------|------------------|------------------|------------------|

E|-----------------|
B|-----------------|
G|-----------------|
D|---4-------------|
A|---2--2-2-2-2----|
E|-----------------|


  Guitar 2
E|------------------|------------------|------------------|------------------|
B|------------------|------------------|------------------|------------------|
G|------------------|------------------|------------------|------------------|
D|---4--4--4--4-----|---4--4--4--4-----|------------------|------------------|
A|---2--2--2--2-----|---2--2--2--2-----|---2--2--2--2-----|---2--2--2--2-----|
E|------------------|------------------|---0--0--0--0-----|---0--0--0--0-----|

E|------------------|------------------|------------------|------------------|
B|------------------|------------------|------------------|------------------|
G|------------------|------------------|------------------|------------------|
D|------------------|------------------|------------------|------------------|
A|---6--6--6--6-----|---6--6--6--6-----|---4--4--4--4-----|---4--4--4--4-----|
E|---4--4--4--4-----|---4--4--4--4-----|---2--2--2--2-----|---2--2--2--2-----|

E|------------------|------------------|------------------|------------------|
B|------------------|------------------|------------------|------------------|
G|------------------|------------------|------------------|------------------|
D|---4--4--4--4-----|---4--4--4--4-----|------------------|------------------|
A|---2--2--2--2-----|---2--2--2--2-----|---2--2--2--2-----|---2--2--2--2-----|
E|------------------|------------------|---0--0--0--0-----|---0--0--0--0-----|

E|------------------|------------------|------------------|------------------|
B|------------------|------------------|------------------|------------------|
G|------------------|------------------|------------------|------------------|
D|------------------|------------------|------------------|------------------|
A|---6--6--6--6-----|---6--6--6--6-----|---4--4--4--4-----|---4--4--4--4-----|
E|---4--4--4--4-----|---4--4--4--4-----|---2--2--2--2-----|---2--2--2--2-----|

E|-----------|
B|-----------|
G|---4-------|
D|---4-------|
A|---2-------|
E|-----------|




Tap to rate this tab
 
# A B C D E F G H I J K L M N O P Q R S T U V W X Y Z