Song name
# A B C D E F G H I J K L M N O P Q R S T U V W X Y Z

Yellowcard - Ocean Avenue tab

Intro/Verse 1 0:01

e|------------------------------------------------------------------------|
B|------------------------------------------------------------------------|
G|------------------------------------------------------------------------|
D|-2--2-2-2-2--4--4-4-4-4-4--0--0-0-0--0--0-0-0-0-0-0---------------------|
A|-2--2-2-2-2--4--4-4-4-4-4--0--0-0-0--0--0-0-0-0-0-0---------------------|
D|-2--2-2-2-2--4--4-4-4-4-4--0--0-0-0--0--0-0-0-0-0-0---------------------|

Fill 1 0:16
e|------------------------------------------------------------|
B|------------------------------------------------------------|
G|-----------9---9-----------------9---9----------------------|
D|----/6---7---7---7--------/6---7---7---7--------------------|
A|-------7-----------9~--------7-----------9-7-9~-------------|
D|------------------------------------------------------------|

Fill 2 0:38
e|------------------------------------------------------------|
B|------------------------------------------------------------|
G|------------9---9--14~-------------------11---9-11----------|
D|-----/6---7---7-----------/6---6/7---7----x---x--x----------|
A|--------7--------------------7-----7---7--9---7--9----------|
D|------------------------------------------------------------|

Chorus 0:49
e|-------------------------------------------------------------|
B|-------------------------------------------------------------|
G|-------------------------------------------------------------|
D|-2------4------0---------------------------------------------|
A|-2-x8---4-x8---0-x8------------------------------------------|
D|-2------4------0---------------------------------------------|

Fill 3 1:06
e|---------------------------------------------------------|
B|---------------------------------------------------------|
G|---------------------------------------------------------|
D|---/6---6/7---7------------------------------------------|
A|------7-----7---7--9-7-9~--------------------------------|
D|---------------------------------------------------------|

Verse 2 1:12
e|-----------------------------------------------------------------------|
B|-----------------------------------------------------------------------|
G|-----------------------------------------------------------------------|
D|--9-9-9-9-11-11-11-11-11-11--7--7-7-7--7--7-7-7-7-7--------------------|
A|--7-7-7-7--9--9--9--9--9--9--5--5-5-5--5--5-5-5-5-5--------------------|
D|-----------------------------------------------------------------------|

Fill 4 1:22
e|---------------------------------------------------------------|
B|---------------------------------------------------------------|
G|-------------------14~------------------11--9-11---------------|
D|---/6---6/7---7----------/6---6/7---7----x--x--x---------------|
A|------7-----7---7-----------7-----7---7--9--7--9---------------|
D|---------------------------------------------------------------|

Bridge 1 1:56
e|--0--0-0-0---0--0-0-0-0-0-----------------------------------|
B|--0--0-0-0---0--0-0-0-0-0-----------------------------------|
G|--2--2-2-2---2--2-2-2-2-2-----------------------------------|
D|--2--2-2-2---2--2-2-2-2-2-----------------------------------|
A|--0--0-0-0---0--0-0-0-0-0-----------------------------------|
D|------------------------------------------------------------|

Bridge 2 2:01
e|----------0---------------------------------------|
B|-----0------0---0---------------------------------|
G|-1h2---2------2-----------------------------------| x16
D|--------------------------------------------------|
A|--------------------------------------------------|
D|--------------------------------------------------|
Tap to rate this tab
 
# A B C D E F G H I J K L M N O P Q R S T U V W X Y Z