Song name
# A B C D E F G H I J K L M N O P Q R S T U V W X Y Z

Yellowcard - Inside Out tab

** this tab is in standard tuning, so some lower rhythm is left out **
* next to a note means play a harmonic

INTRO (distortion) / OUTRO (outro simply adds on first two chords of chorus to end)
Repeat first sections a number of times
E|---|-------------------|-------------|
B|---|-10-10--10-7-8-7-8-|-10-7--------|
G|-7-|-11-11--11-7-9-7-9-|-11-7-7*7*7*-|
D|-7-|-------------------|-------------|
A|-5-|-------------------|-------------|
E|---|-------------------|-------------|

VERSE (1st half of 1st verse no guitar, 2nd half overall less intense than 2nd verse, 
which adds the third part below)
(distortion + muting)
E|----------------------------------------------------------------------|
B|--------------------------------8-8-x-8-8-8-----8-8-x-8-8-8-----7-7-x-|
G|-7-7--7-7-7-6-6-7-7-x-7-7-7-6-6-7-7-x-7-7-7-6-6-7-7-x-7-7-7-6-6-7-7-x-|
D|-7-7--7-7-7-7-7-7-7-x-7-7-7-7-7-7-7-x-7-7-7-7-7-7-7-x-7-7-7-7-7-7-7-x-|
A|-5-5--5-5-5-5-5-5-5-x-5-5-5-5-5-5-5-x-5-5-5-5-5-5-5-x-5-5-5-5-5-5-5-x-|
E|----------------------------------------------------------------------|
(distortion + muting)
E|------------------------------------------------------------|
B|-7-7-7-----7-7---7-7-7-----8-8-x-8-8-8-----8-8-x-8-8-8------|
G|-7-7-7-6-6-7-7-x-7-7-7-6-6-7-7-x-7-7-7-6-6-7-7-x-7-7-7-6-6--|
D|-7-7-7-7-7-7-7-x-7-7-7-7-7-7-7-x-7-7-7-7-7-7-7-x-7-7-7-7-7--|
A|-5-5-5-5-5-5-5-x-5-5-5-5-5-5-5-x-5-5-5-5-5-5-5-x-5-5-5-5-5--|
E|------------------------------------------------------------|
(power chords, distortion, no muting, rhythm not shown -this part at end of 2nd verse-)
E|---------|
B|---------|
G|-----7---|
D| 9-7-7-5-|
A|-9-7-5-5-|
E|-7-5---3-|

CHORUS (distortion, let ring; rhythm not shown for last four chords)

E|------------------------------------|
B|------------------------------------|
G|-----7-7--6-6-4-4-------------------|
D|-5-5-7-7--6-6-4-4--2-2-5-5--2-4-5-7-|
A|-5-5-5-5--4-4-2-2--2-2-5-5--2-4-5-7-|
E|-3-3---------------0-0-3-3--0-2-3-5-|

INTERLUDE (distortion, rhythm not shown for power chords)

E|-7-5-------|--------|
B|-----7-8-5-|--------|
G|-----------|-7---12-|
D|-----------|-7-9-12-|after interlude a rendition of chorus with no
A|-----------|-5-9-10-|distortion & quieter strumming
E|-----------|---7----|

ORDER: Intro, 1st Verse, Chorus, 2nd Verse, Chorus, Interlude, Quiet Chorus, Final 
Chorus, Outro
Tap to rate this tab
 
# A B C D E F G H I J K L M N O P Q R S T U V W X Y Z