Yellowcard - For You And Your Denial tab

Drop D Tuning
Kay.  Not gonna lie.  This was pretty tough for me to tab out.  Hopefully
it's good enough to merit a decent rating.  Rate generously.  Please?!  Lol

Intro
Violin
(Might be off on but this is played pretty fast.  Cut me some slack!)
e-10--------------------9-10----------------9-10----------------|
b----12-10-----------12------12-10-------12------12-10----------|
g----------11-12-------------------11------------------11-12----|
d----------------12-------------------9----------------------12-|
a---------------------------------------------------------------|
d---------------------------------------------------------------|

e----9-10----------------------12-------10-------12-10----12-10-9--------------|
b-12------12-10-------------------10-10----10-10-------10---------10-12-10-9---|
g---------------11-12----9-----------------------------------------------------|
d---------------------12---12------------------------------------------------9-|
a------------------------------------------------------------------------------|
d------------------------------------------------------------------------------|

e-10~-9~--------|
b--------10~----|
g------------7~-|
d---------------|
a---------------|
d---------------|

Intro/Post Chorus
e------------------------------------------------------------------------|
b------------------------------------------------------------------------|
g-4444444444444444-6666-7777777777777777-9999999999999999----------------|
d-4444444444444444-6666-7777777777777777-9999999999999999-55-555-555-555-|
a-2222222222222222-4444-5555555555555555-7777777777777777-55-555-555-555-|
d---------------------------------------------------------55-555-555-555-|

Verse 1
Rhythm (figure out its rhythm)
e----------------------------------------------------------|
b----------------------------------------------------------|
g-444444444444-6666-777777777777---------------------------|
d-444444444444-6666-777777777777-777777777777-555555555555-|
a-222222222222-4444-555555555555-777777777777-555555555555-|
d--------------------------------777777777777-555555555555-|

Lead (Palm Mute)
e------------------------------------------------------|
b---------------------------------------------10-------|
g-777777777777777-6666-777777777777-9-11-9-12----12----|
d---------------------------------------------------12-|
a------------------------------------------------------|
d------------------------------------------------------|

e------------------------------------------------------|
b---------------------------------------------10-------|
g------------------------------------11----12----12----|
d-11111111111111111111111-99999999-9----9-----------12-|
a--------(11's)----------------------------------------|
d------------------------------------------------------|

Chorus
e-------------------------------------------------------------|
b-------------------------------------------------------------|
g-444444444444-6666-777777777777------------------------------|
d-444444444444-6666-777777777777-555555555555-999-5-5-777-5-5-|
a-222222222222-4444-555555555555-555555555555-999-5-5-777-5-5-|
d--------------------------------555555555555-999-5-5-777-5-5-|


e--------------------------------------------------------------|
b--------------------------------------------------------------|
g-444444444444-6666-777777777777-------------------------------|
d-444444444444-6666-777777777777-555555555555-999-5-5-777-0000-|
a-222222222222-4444-555555555555-555555555555-999-5-5-777-0000-|
d--------------------------------555555555555-999-5-5-777-0000-|


Intro/Post-chorus

Verse 2
First half is same as first verse

Second half (Both Guitars)
e-----------------------------------------------------------------------|
b-----------------------------------------------------------------------|
g-444444444444-6666-777777777777----------------------------------------|
d-444444444444-6666-777777777777-777777777777-555555555555-777777777777-|
a-222222222222-4444-555555555555-777777777777-555555555555-777777777777-|
d--------------------------------777777777777-555555555555-777777777777-|

Chorus

Bridge
e----------------------------------------|
b----------------------------------------|
g-----4-----6-----7-----11---------------|
d---4-----6-----7-----11----555555555555-| 2x
a-2-----4-----5-----9-------555555555555-|
d---------------------------555555555555-|

Rhythm
e-------------------------------------------------------------------|
b-------------------------------------------------------------------|
g----------------------------------------4444-6666-7777-------------| 2x
d-555555555555-444444444444-555555555555-4444-6666-7777-77777777777-|
a-555555555555-444444444444-555555555555-2222-4444-5555-77777777777-|
d-555555555555-444444444444-555555555555----------------77777777777-|

Lead (Whole thing 2x)
e-------------------------------------------------------------------------|
b-------------------------------------------------------------------------|
g-111111111111111111111111-7777-121212121212121212121212-1111111111111111-|
d--x-x-x-x-x-x-x-x-x-x-x-x-xxxx--x-x-x-x-x-x-x-x-x-x-x-x--x-x-x-x-x-x-x-x-|
a--9-9-9-9-9-9-9-9-9-9-9-9-5555-101010101010101010101010--9-9-9-9-9-9-9-9-|
d-------------------------------------------------------------------------|

e--------------------------------------------------|
b--------------------------------------------------|
g-4444-6666-7777-11111111-121212121212121212121212-|
d-xxxx-xxxx-xxxx--x-x-x-x--x-x-x-x-x-x-x-x-x-x-x-x-|
a-2222-4444-5555--9-9-9-9-101010101010101010101010-|
d--------------------------------------------------|

Post Bridge
First couple lines for violin verse here

Guitar
e----------------------------------------|
b----------------------------------------|
g-444444444444-6666-7777777777777777-----|
d-444444444444-6666-7777777777777777-5~--|
a-222222222222-4444-5555555555555555-5~--|
d------------------------------------5~--|

Rhythm Guitar (know when to play what)
Chorus several times

e-----------------|
b-----------------|
g-----------------| repeat
d-999-5-5-777-5-5-|  till
a-999-5-5-777-5-5-|  end
d-999-5-5-777-5-5-|

Lead Guitar (last time rhythm plays chorus part 2.  Kinda hard to hear)
e-----------------------|
b-------------10--------|
g-----11---12----12-11--| repeat
d-9-9----9--------------| couple
a-----------------------| times
d-----------------------|

Ending
e---------10-10-10----------------------------|
b------------------12-10----------------------|
g-----11----------------------11-11-----11-11-|
d-9-9---------------------9-9-------9-9-------|
a---------------------------------------------|
d---------------------------------------------|

e--------------------------------------------------|
b-------------10-------------------10--------------|
g-----11---12----12-11-----11---12----12-11---11~--|
d-9-9----9-------------9-9----9-------------9------|
a--------------------------------------------------|
d--------------------------------------------------|
Tap to rate this tab
 
# A B C D E F G H I J K L M N O P Q R S T U V W X Y Z