Yellowcard - Hide tab

-------------------
 Hide ~ Yellowcard
-------------------
When You're Through Thinking, Say Yes

Tabbed By: RussCool
(I know, pretty lame name)

Tuning: Drop D



   INTRO
E |----------------------------|----------------------------|
B |--7--7--7--7-----7--7--8L---|--8--8--8--8-----8--8--7L---|
G |--------7-----------7-------|--------7-----------7-------|
D |----------------------------|----------------------------|
A |----------------------------|----------------------------|
D |----------------------------|----------------------------|


----------------------------|----------------------------|
--7--7--7--7-----7--7--5L---|--5--5--5--5-----5--5-------|
--------7-----------7-------|--------7-----------7-------|
----------------------------|----------------------------|
----------------------------|----------------------------|
----------------------------|----------------------------|

VERSE
----------------------------|----------------------------|
--7--7--7--7-----7--7--8L---|--8--8--8--8-----8--8--7L---|
--------7-----------7-------|--------7-----------7-------|
----------------------------|----------------------------|
----------------------------|----------------------------|
----------------------------|----------------------------|


----------------------------|----------------------------|
--7--7--7--7-----7--7--5L---|--5--5--5--5-----5--5-------|
--------7-----------7-------|--------7-----------7-------|
----------------------------|----------------------------|
----------------------------|----------------------------|
----------------------------|----------------------------|


----------------------------|----------------------------|
--7--7--7--7-----7--7--8L---|--8--8--8--8-----8--8--7L---|
--------7-----------7-------|--------7-----------7-------|
----------------------------|----------------------------|
----------------------------|----------------------------|
----------------------------|----------------------------|


----------------------------|----------------------------|
--7--7--7--7-----7--7--5L---|--5--5--5--5-----5--5-------|
--------7-----------7-------|--------7-----------7-------|
----------------------------|----------------------------|
----------------------------|----------------------------|
----------------------------|----------------------------|


----------------------------|----------------------------|
--7--7--7--7-----7--7--8L---|--8--8--8--8-----8--8--7L---|
--------7-----------7-------|--------7-----------7-------|
----------------------------|----------------------------|
----------------------------|----------------------------|
----------------------------|----------------------------|


----------------------------|----------------------------|
--7--7--7--7-----7--7--5L---|--5--5--5--5-----5--5-------|
--------7-----------7-------|--------7-----------7-------|
----------------------------|----------------------------|
----------------------------|----------------------------|
----------------------------|----------------------------|


----------------------------|----------------------------|
--7--7--7--7-----7--7--8L---|--8--8--8--8-----8--8--7L---|
--------7-----------7-------|--------7-----------7-------|
----------------------------|----------------------------|
----------------------------|----------------------------|
----------------------------|----------------------------|


----------------------------|----------------------------|
--7--7--7--7-----7--7--5L---|--5--5--5--5-----5--5-------|
--------7-----------7-------|--------7-----------7-------|
----------------------------|----------------------------|
----------------------------|----------------------------|
----------------------------|----------------------------|

PRE-CHORUS
----------------------------|----------------------------|
----------------------------|----------------------------|
----------------------------|----------------------------|
--4--4--4--4--4--4--4--4----|--4--4--4--4--4--4--4--4----|
--5--5--5--5--5--5--5--5----|--5--5--5--5--5--5--5--5----|
--4--4--4--4--4--4--4--4----|--4--4--4--4--4--4--4--4----|


----------------------------|----------------------------|
----------------------------|----------------------------|
----------------------------|----------------------------|
--4--4--4--4--4--4--4--4----|--4--4--4--4--4--4--4--4----|
--5--5--5--5--5--5--5--5----|--5--5--5--5--5--5--5--5----|
--4--4--4--4--4--4--4--4----|--4--4--4--4--4--4--4--4----|


----------------------------|----------------------------|
----------------------------|----------------------------|
----------------------------|----------------------------|
--2--2--2--2--2--2--2--2----|--2--2--2--2--2--2--2--2----|
--2--2--2--2--2--2--2--2----|--2--2--2--2--2--2--2--2----|
--2--2--2--2--2--2--2--2----|--2--2--2--2--2--2--2--2----|


----------------------------|----------------------------|
----------------------------|----------------------------|
----------------------------|----------------------------|
--2--2--2--2--2--2--2--2----|--2--2--2--2--x--x--x--x----|
--2--2--2--2--2--2--2--2----|--2--2--2--2--x--x--x--x----|
--2--2--2--2--2--2--2--2----|--2--2--2--2--x--x--x--x----|

CHORUS
----------------------------|----------------------------|
----------------------------|----------------------------|
----------------------------|----------------------------|
--0--0--0--0--0--0--0--0----|--0--0--0--0--0--0--0--0----|
--0--0--0--0--0--0--0--0----|--0--0--0--0--0--0--0--0----|
--0--0--0--0--0--0--0--0----|--0--0--0--0--0--0--0--0----|


----------------------------|----------------------------|
----------------------------|----------------------------|
----------------------------|----------------------------|
--0--0--0--0--0--0--0--0----|--0--0--0--0--0--0--0--0----|
--0--0--0--0--0--0--0--0----|--0--0--0--0--0--0--0--0----|
--0--0--0--0--0--0--0--0----|--0--0--0--0--0--0--0--0----|


----------------------------|----------------------------|
----------------------------|----------------------------|
----------------------------|----------------------------|
--5--5--5--5--5--5--5--5----|--5--5--5--5--5--5--5--5----|
--5--5--5--5--5--5--5--5----|--5--5--5--5--5--5--5--5----|
--5--5--5--5--5--5--5--5----|--5--5--5--5--5--5--5--5----|


----------------------------|----------------------------|
----------------------------|----------------------------|
----------------------------|----------------------------|
--5--5--5--5--5--5--5--5----|--5--5--5--5--5--5--5--5----|
--5--5--5--5--5--5--5--5----|--5--5--5--5--5--5--5--5----|
--5--5--5--5--5--5--5--5----|--5--5--5--5--5--5--5--5----|


----------------------------|----------------------------|
----------------------------|----------------------------|
----------------------------|----------------------------|
--4--4--4--4--4--4--4--4----|--4--4--4--4--4--4--4--4----|
--5--5--5--5--5--5--5--5----|--5--5--5--5--5--5--5--5----|
--4--4--4--4--4--4--4--4----|--4--4--4--4--4--4--4--4----|


----------------------------|----------------------------|
----------------------------|----------------------------|
----------------------------|----------------------------|
--2--2--2--2--2--2--2--2----|--2--2--2--2--2--2--2--2----|
--2--2--2--2--2--2--2--2----|--2--2--2--2--2--2--2--2----|
--2--2--2--2--2--2--2--2----|--2--2--2--2--2--2--2--2----|


----------------------------|----------------------------|
----------------------------|----------------------------|
----------------------------|----------------------------|
--5--5--5--5--5--5--5--5----|--5--5--5--5--5--5--5--5----|
--5--5--5--5--5--5--5--5----|--5--5--5--5--5--5--5--5----|
--5--5--5--5--5--5--5--5----|--5--5--5--5--5--5--5--5----|


----------------------------|----------------------------|
----------------------------|----------------------------|
----------------------------|----------------------------|
--5--5--5--5--5--5--5--5----|--5--5--5--5--5--5--5--5----|
--5--5--5--5--5--5--5--5----|--5--5--5--5--5--5--5--5----|
--5--5--5--5--5--5--5--5----|--5--5--5--5--5--5--5--5----|

INTERLUDE
----------------------------|----------------------------|
--7--7--7--7-----7--7--8L---|--8--8--8--8-----8--8--7----|
--------7-----------7-------|--------7-----------7-------|
----------------------------|----------------------------|
----------------------------|----------------------------|
----------------------------|----------------------------|

VERSE
----------------------------|----------------------------|
--7--7--7--7-----7--7--8L---|--8--8--8--8-----8--8--7L---|
--------7-----------7-------|--------7-----------7-------|
----------------------------|----------------------------|
----------------------------|----------------------------|
----------------------------|----------------------------|


----------------------------|----------------------------|
--7--7--7--7-----7--7--5L---|--5--5--5--5-----5--5-------|
--------7-----------7-------|--------7-----------7-------|
----------------------------|----------------------------|
----------------------------|----------------------------|
----------------------------|----------------------------|


----------------------------|----------------------------|
--7--7--7--7-----7--7--8L---|--8--8--8--8-----8--8--7L---|
--------7-----------7-------|--------7-----------7-------|
----------------------------|----------------------------|
----------------------------|----------------------------|
----------------------------|----------------------------|


----------------------------|----------------------------|
--7--7--7--7-----7--7--5L---|--5--5--5--5-----5--5-------|
--------7-----------7-------|--------7-----------7-------|
----------------------------|----------------------------|
----------------------------|----------------------------|
----------------------------|----------------------------|


----------------------------|----------------------------|
--7--7--7--7-----7--7--8L---|--8--8--8--8-----8--8--7L---|
--------7-----------7-------|--------7-----------7-------|
----------------------------|----------------------------|
----------------------------|----------------------------|
----------------------------|----------------------------|


----------------------------|----------------------------|
--7--7--7--7-----7--7--5L---|--5--5--5--5-----5--5-------|
--------7-----------7-------|--------7-----------7-------|
----------------------------|----------------------------|
----------------------------|----------------------------|
----------------------------|----------------------------|


----------------------------|----------------------------|
--7--7--7--7-----7--7--8L---|--8--8--8--8-----8--8--7L---|
--------7-----------7-------|--------7-----------7-------|
----------------------------|----------------------------|
----------------------------|----------------------------|
----------------------------|----------------------------|


----------------------------|----------------------------|
--7--7--7--7-----7--7--5L---|--5--5--5--5-----5--5-------|
--------7-----------7-------|--------7-----------7-------|
----------------------------|----------------------------|
----------------------------|----------------------------|
----------------------------|----------------------------|

PRE-CHORUS
----------------------------|----------------------------|
----------------------------|----------------------------|
----------------------------|----------------------------|
--4--4--4--4--4--4--4--4----|--4--4--4--4--4--4--4--4----|
--5--5--5--5--5--5--5--5----|--5--5--5--5--5--5--5--5----|
--4--4--4--4--4--4--4--4----|--4--4--4--4--4--4--4--4----|


----------------------------|----------------------------|
----------------------------|----------------------------|
----------------------------|----------------------------|
--4--4--4--4--4--4--4--4----|--4--4--4--4--4--4--4--4----|
--5--5--5--5--5--5--5--5----|--5--5--5--5--5--5--5--5----|
--4--4--4--4--4--4--4--4----|--4--4--4--4--4--4--4--4----|


----------------------------|----------------------------|
----------------------------|----------------------------|
----------------------------|----------------------------|
--2--2--2--2--2--2--2--2----|--2--2--2--2--2--2--2--2----|
--2--2--2--2--2--2--2--2----|--2--2--2--2--2--2--2--2----|
--2--2--2--2--2--2--2--2----|--2--2--2--2--2--2--2--2----|


----------------------------|----------------------------|
----------------------------|----------------------------|
----------------------------|----------------------------|
--2--2--2--2--2--2--2--2----|--2--2--2--2--x--x--x--x----|
--2--2--2--2--2--2--2--2----|--2--2--2--2--x--x--x--x----|
--2--2--2--2--2--2--2--2----|--2--2--2--2--x--x--x--x----|

CHORUS
----------------------------|----------------------------|
----------------------------|----------------------------|
----------------------------|----------------------------|
--0--0--0--0--0--0--0--0----|--0--0--0--0--0--0--0--0----|
--0--0--0--0--0--0--0--0----|--0--0--0--0--0--0--0--0----|
--0--0--0--0--0--0--0--0----|--0--0--0--0--0--0--0--0----|


----------------------------|----------------------------|
----------------------------|----------------------------|
----------------------------|----------------------------|
--0--0--0--0--0--0--0--0----|--0--0--0--0--0--0--0--0----|
--0--0--0--0--0--0--0--0----|--0--0--0--0--0--0--0--0----|
--0--0--0--0--0--0--0--0----|--0--0--0--0--0--0--0--0----|


----------------------------|----------------------------|
----------------------------|----------------------------|
----------------------------|----------------------------|
--5--5--5--5--5--5--5--5----|--5--5--5--5--5--5--5--5----|
--5--5--5--5--5--5--5--5----|--5--5--5--5--5--5--5--5----|
--5--5--5--5--5--5--5--5----|--5--5--5--5--5--5--5--5----|


----------------------------|----------------------------|
----------------------------|----------------------------|
----------------------------|----------------------------|
--5--5--5--5--5--5--5--5----|--5--5--5--5--5--5--5--5----|
--5--5--5--5--5--5--5--5----|--5--5--5--5--5--5--5--5----|
--5--5--5--5--5--5--5--5----|--5--5--5--5--5--5--5--5----|


----------------------------|----------------------------|
----------------------------|----------------------------|
----------------------------|----------------------------|
--4--4--4--4--4--4--4--4----|--4--4--4--4--4--4--4--4----|
--5--5--5--5--5--5--5--5----|--5--5--5--5--5--5--5--5----|
--4--4--4--4--4--4--4--4----|--4--4--4--4--4--4--4--4----|


----------------------------|----------------------------|
----------------------------|----------------------------|
----------------------------|----------------------------|
--2--2--2--2--2--2--2--2----|--2--2--2--2--2--2--2--2----|
--2--2--2--2--2--2--2--2----|--2--2--2--2--2--2--2--2----|
--2--2--2--2--2--2--2--2----|--2--2--2--2--2--2--2--2----|


----------------------------|----------------------------|
----------------------------|----------------------------|
----------------------------|----------------------------|
--5--5--5--5--5--5--5--5----|--5--5--5--5--5--5--5--5----|
--5--5--5--5--5--5--5--5----|--5--5--5--5--5--5--5--5----|
--5--5--5--5--5--5--5--5----|--5--5--5--5--5--5--5--5----|

                                                          BRIDGE
----------------------------|----------------------------|-------|-------|
----------------------------|----------------------------|-------|-------|
----------------------------|----------------------------|-------|-------|
--5--5--5--5--5--5--5--5----|--5--5--5--5--5--5--5--5----|--0L---|--0L---|
--5--5--5--5--5--5--5--5----|--5--5--5--5--5--5--5--5----|--0L---|--0L---|
--5--5--5--5--5--5--5--5----|--5--5--5--5--5--5--5--5----|--0L---|--0L---|


-------|-------|-------|-------|-------|-------|-------|-------|-------|-------|
-------|-------|-------|-------|-------|-------|-------|-------|-------|-------|
-------|-------|-------|-------|-------|-------|-------|-------|-------|-------|
--0L---|--0----|--5L---|--5----|--0L---|--0----|--5L---|--5----|--0L---|--0----|
--0L---|--0----|--5L---|--5----|--0L---|--0----|--5L---|--5----|--0L---|--0----|
--0L---|--0----|--5L---|--5----|--0L---|--0----|--5L---|--5----|--0L---|--0----|


-------|-------|-------|-------|-------|-------|-------|----------------|
-------|-------|-------|-------|-------|-------|-------|----------------|
-------|-------|-------|-------|-------|-------|-------|----------------|
--5L---|--5----|--0L---|--0----|--5L---|--5----|--0L---|--0-------------|
--5L---|--5----|--0L---|--0----|--5L---|--5----|--0L---|--0-------------|
--5L---|--5----|--0L---|--0----|--5L---|--5----|--0L---|--0-------------|

CHORUS
----------------------------|----------------------------|
----------------------------|----------------------------|
----------------------------|----------------------------|
--0--0--0--0--0--0--0--0----|--0--0--0--0--0--0--0--0----|
--0--0--0--0--0--0--0--0----|--0--0--0--0--0--0--0--0----|
--0--0--0--0--0--0--0--0----|--0--0--0--0--0--0--0--0----|


----------------------------|----------------------------|
----------------------------|----------------------------|
----------------------------|----------------------------|
--0--0--0--0--0--0--0--0----|--0--0--0--0--0--0--0--0----|
--0--0--0--0--0--0--0--0----|--0--0--0--0--0--0--0--0----|
--0--0--0--0--0--0--0--0----|--0--0--0--0--0--0--0--0----|


----------------------------|----------------------------|
----------------------------|----------------------------|
----------------------------|----------------------------|
--5--5--5--5--5--5--5--5----|--5--5--5--5--5--5--5--5----|
--5--5--5--5--5--5--5--5----|--5--5--5--5--5--5--5--5----|
--5--5--5--5--5--5--5--5----|--5--5--5--5--5--5--5--5----|


----------------------------|----------------------------|
----------------------------|----------------------------|
----------------------------|----------------------------|
--5--5--5--5--5--5--5--5----|--5--5--5--5--5--5--5--5----|
--5--5--5--5--5--5--5--5----|--5--5--5--5--5--5--5--5----|
--5--5--5--5--5--5--5--5----|--5--5--5--5--5--5--5--5----|


----------------------------|----------------------------|
----------------------------|----------------------------|
----------------------------|----------------------------|
--4--4--4--4--4--4--4--4----|--4--4--4--4--4--4--4--4----|
--5--5--5--5--5--5--5--5----|--5--5--5--5--5--5--5--5----|
--4--4--4--4--4--4--4--4----|--4--4--4--4--4--4--4--4----|


----------------------------|----------------------------|
----------------------------|----------------------------|
----------------------------|----------------------------|
--2--2--2--2--2--2--2--2----|--2--2--2--2--2--2--2--2----|
--2--2--2--2--2--2--2--2----|--2--2--2--2--2--2--2--2----|
--2--2--2--2--2--2--2--2----|--2--2--2--2--2--2--2--2----|


----------------------------|----------------------------|
----------------------------|----------------------------|
----------------------------|----------------------------|
--5--5--5--5--5--5--5--5----|--5--5--5--5--5--5--5--5----|
--5--5--5--5--5--5--5--5----|--5--5--5--5--5--5--5--5----|
--5--5--5--5--5--5--5--5----|--5--5--5--5--5--5--5--5----|


----------------------------|----------------------------|
----------------------------|----------------------------|
----------------------------|----------------------------|
--5--5--5--5--5--5--5--5----|--5--5--5--5--5--5--5--5----|
--5--5--5--5--5--5--5--5----|--5--5--5--5--5--5--5--5----|
--5--5--5--5--5--5--5--5----|--5--5--5--5--5--5--5--5----|

CHORUS / OUTRO
----------------------------|----------------------------|
----------------------------|----------------------------|
----------------------------|----------------------------|
--0--0--0--0--0--0--0--0----|--0--0--0--0--0--0--0--0----|
--0--0--0--0--0--0--0--0----|--0--0--0--0--0--0--0--0----|
--0--0--0--0--0--0--0--0----|--0--0--0--0--0--0--0--0----|


----------------------------|----------------------------|
----------------------------|----------------------------|
----------------------------|----------------------------|
--0--0--0--0--0--0--0--0----|--0--0--0--0--0--0--0--0----|
--0--0--0--0--0--0--0--0----|--0--0--0--0--0--0--0--0----|
--0--0--0--0--0--0--0--0----|--0--0--0--0--0--0--0--0----|


----------------------------|----------------------------|
----------------------------|----------------------------|
----------------------------|----------------------------|
--5--5--5--5--5--5--5--5----|--5--5--5--5--5--5--5--5----|
--5--5--5--5--5--5--5--5----|--5--5--5--5--5--5--5--5----|
--5--5--5--5--5--5--5--5----|--5--5--5--5--5--5--5--5----|


----------------------------|----------------------------|
----------------------------|----------------------------|
----------------------------|----------------------------|
--5--5--5--5--5--5--5--5----|--5--5--5--5--5--5--5--5----|
--5--5--5--5--5--5--5--5----|--5--5--5--5--5--5--5--5----|
--5--5--5--5--5--5--5--5----|--5--5--5--5--5--5--5--5----|


----------------------------|----------------------------|
----------------------------|----------------------------|
----------------------------|----------------------------|
--4--4--4--4--4--4--4--4----|--4--4--4--4--4--4--4--4----|
--5--5--5--5--5--5--5--5----|--5--5--5--5--5--5--5--5----|
--4--4--4--4--4--4--4--4----|--4--4--4--4--4--4--4--4----|


----------------------------|----------------------------|
----------------------------|----------------------------|
----------------------------|----------------------------|
--2--2--2--2--2--2--2--2----|--2--2--2--2--2--2--2--2----|
--2--2--2--2--2--2--2--2----|--2--2--2--2--2--2--2--2----|
--2--2--2--2--2--2--2--2----|--2--2--2--2--2--2--2--2----|


----------------------------|----------------------------|
----------------------------|----------------------------|
----------------------------|----------------------------|
--5--5--5--5--5--5--5--5----|--5--5--5--5--5--5--5--5----|
--5--5--5--5--5--5--5--5----|--5--5--5--5--5--5--5--5----|
--5--5--5--5--5--5--5--5----|--5--5--5--5--5--5--5--5----|


----------------------------|----------------------------||
----------------------------|----------------------------||
----------------------------|----------------------------||
--5--5--5--5--5--5--5--5----|--5--5--5--5--5--5--5--5----||
--5--5--5--5--5--5--5--5----|--5--5--5--5--5--5--5--5----||
--5--5--5--5--5--5--5--5----|--5--5--5--5--5--5--5--5----||
Tap to rate this tab
 
# A B C D E F G H I J K L M N O P Q R S T U V W X Y Z