Song name
# A B C D E F G H I J K L M N O P Q R S T U V W X Y Z

Yellowcard - Ocean Avenue tab

Yellow Card
"Ocean Avenue"

Normal Tuning
H = Hammer On
S = Slide

Riff 1                             
|------------------------------------|
|------------------------------------|
|------------------------------------|
|-------------------7--777--7--77777-|
|-2--222--4--44444--5--555--5--55555-|
|-0--000--2--22222-------------------|

Riff 2
|----------------------------------------------------------------|
|----------------------------------------------------------------|
|----------------------------------------------------------------|
|9-9-9-9-9-9-9-9-11111111111111117-7-7-7-7-7-7-7-7-7-7-7-7-7-7-7-|
|7-7-7-7-7-7-7-7-9-9-9-9-9-9-9-9-5-5-5-5-5-5-5-5-5-5-5-5-5-5-5-5-|
|----------------------------------------------------------------|

Riff 3
|------------------------------------------|
|------------------------------------------|
|-------------9--------------------9-------|
|-1-S-6---6-7---6-4----1-S-6---6-7---6-424-|
|-------7--------------------7-------------|
|------------------------------------------|

Riff 4         
|--------0-0-0-|
|------0-0-0-0-|
|1-H-2---------|
|--------------|
|--------------|
|--------------|

Riff 5
|-------------------------------------------------------------------------|
|-------------------------------------------------------------------------|
|-------------------------------------------------------------------------|
|-9-9-9-9-9-9-9-9-11111111111111117-7-7-7-7-7-7-7-7-7-7-7-7-7-7-7-9-9-9-9-|
|-7-7-7-7-7-7-7-7-9-9-9-9-9-9-9-9-5-5-5-5-5-5-5-5-5-5-5-5-5-5-5-5-7-7-7-7-|
|-------------------------------------------------------------------------|

|-----------------------------------------|
|-----------------------------------------|
|-----------------------------------------|
|-111111117-7-7-7-7-7-7-7-7-7-7-7-7-7-7-7-|
|-9-9-9-9-5-5-5-5-5-5-5-5-5-5-5-5-5-5-5-5-|
|-----------------------------------------|

FIGURE THE ORDER AND THE NUMBER OF TIMES TO PLAY IT YOURSELF!!!

Tabbed by:  Brian LaMarre - s3xy l3m0n
Tap to rate this tab
 
# A B C D E F G H I J K L M N O P Q R S T U V W X Y Z