Song name
# A B C D E F G H I J K L M N O P Q R S T U V W X Y Z

Yellowcard - Promises tab

-----------------------
 Promises ~ Yellowcard
-----------------------
Album: When You're Through Thinking, Say Yes   (2011)

Tabbed By: RussCool
(I know, pretty lame name)

Tuning: Drop D

Note: If you pre-ordered this album, 
then this song is an exclusive bonus track.

Part: Intro


  Guitar 1
E|--------------------------------------------------------|
B|----------------10------------9------------9------------|
G|---9---11---9--------9------------9------------9--------|
D|-------------------------11-----------11-----------11---|
A|--------------------------------------------------------|
D|--------------------------------------------------------|

E|----------------9-------------7------------7------------|
B|--------------------------------------------------------|
G|---9---11---9-------9-------------9------------9--------|
D|------------------------11------------11-----------11---|
A|--------------------------------------------------------|
D|--------------------------------------------------------|


  Guitar 2
E|-----------------------------------------------------|
B|-----------------------------------------------------|
G|-----------------------------------------------------|
D|---4-4-4-4-4-4-4-4-4-4-4-4-9-9-9-9-9-9-9-9-9-9-9-9---|
A|---4-4-4-4-4-4-4-4-4-4-4-4-9-9-9-9-9-9-9-9-9-9-9-9---|
D|---4-4-4-4-4-4-4-4-4-4-4-4-9-9-9-9-9-9-9-9-9-9-9-9---|
Tap to rate this tab
 
# A B C D E F G H I J K L M N O P Q R S T U V W X Y Z