Song name
# A B C D E F G H I J K L M N O P Q R S T U V W X Y Z

Yellowcard - Hang You Up tab

-------------------------------------------------------------------------------
			   HANG YOU UP - Yellowcard
-------------------------------------------------------------------------------
Tabbed by: Anthinator

Tuning: E A D G b e

Epic new single off of YC's new record. I know there are other tabs right now
but this one is accurate ;)

The strumming is really simple. All down strokes.

INTRO:
e|---------------------------------------------------------------------------|
B|-3333333333333333----------------------------------------------------------|
G|-2222222222222222----------------------------------------------------------|
D|-0000000000000000----------------------------------------------------------|
A|---------------------------------------------------------------------------|
E|---------------------------------------------------------------------------|


VERSE: "I cannot hold this anymore..."
e|---------------------------------------------------------------------------|
B|-33333333-33333333-33333333-3333-3333-33333333-33333333--------------------|
G|-22222222-22222222-22222222-2222-2222-22222222-22222222--------------------|
D|-00000000-00000000-00000000-0000-0000-00000000-00000000--------------------|
A|----------xxxxxxxx----------2222-0000-22222222-xxxxxxxx--------------------|
E|----------33333333-----------------------------33333333--------------------|


VERSE CONT'D: "I used to know which way to turn..."
e|---------------------------------------------------------------------------|
B|-33333333-33333333-33333333-3333-3333-33333333-33333333-33333333-33333333--|
G|-22222222-22222222-22222222-2222-2222-22222222-22222222-22222222-22222222--|
D|-00000000-00000000-00000000-0000-0000-00000000-00000000-00000000-00000000--|
A|----------xxxxxxxx----------2222-0000-22222222-xxxxxxxx-xxxxxxxx-xxxxxxxx--|
E|----------33333333-----------------------------33333333-22222222-33333333--|


CHORUS: 2X "It's hard to see you we are older now..."
e|---------------0~----------------------------------------------0~----------|
B|-------3-----3---------3-----3---------3-------3-------3-----3-------------|
G|-----2-----2---------2-----2---2-----2-------2-------2-----2---------------|
D|---0-----0---------0-----0---------0-------0-------0-----0-----------------|
A|-2-------------------------------2-----------------------------------------|
E|-----------------3-----------------------2-------3-------------------------|


CHORUS CONT'D: "I hang you up and then I pull you down"
e|---------------------------------------------------------------------------|
B|-------3-------3-------3---------------------------------------------------|
G|-----2-------2-------2-----------------------------------------------------|
D|---0-------0-------0-------------------------------------------------------|
A|-2-------------------------------------------------------------------------|
E|---------2-------3---------------------------------------------------------|


e|---------------------------------------------------------------------------|
B|-33333333-33333333---------------------------------------------------------|
G|-22222222-22222222---------------------------------------------------------|
D|-00000000-00000000---------------------------------------------------------|
A|----------xxxxxxxx---------------------------------------------------------|
E|----------33333333---------------------------------------------------------|


VERSE: "No more apologies from me..."
e|---------------------------------------------------------------------------|
B|-33333333-33333333-33333333-3333-3333-33333333-33333333--------------------|
G|-22222222-22222222-22222222-2222-2222-22222222-22222222--------------------|
D|-00000000-00000000-00000000-0000-0000-00000000-00000000--------------------|
A|----------xxxxxxxx----------2222-0000-22222222-xxxxxxxx--------------------|
E|----------33333333-----------------------------33333333--------------------|


VERSE CONT'D: "I'm gonna miss you everyday..."
e|---------------------------------------------------------------------------|
B|-33333333-33333333-33333333-3333-3333-33333333-33333333-33333333-33333333--|
G|-22222222-22222222-22222222-2222-2222-22222222-22222222-22222222-22222222--|
D|-00000000-00000000-00000000-0000-0000-00000000-00000000-00000000-00000000--|
A|----------xxxxxxxx----------2222-0000-22222222-xxxxxxxx-xxxxxxxx-xxxxxxxx--|
E|----------33333333-----------------------------33333333-22222222-33333333--|


CHORUS: 2X "It's hard to see you we are older now..."
e|---------------0~----------------------------------------------0~----------|
B|-------3-----3---------3-----3---------3-------3-------3-----3-------------|
G|-----2-----2---------2-----2---2-----2-------2-------2-----2---------------|
D|---0-----0---------0-----0---------0-------0-------0-----0-----------------|
A|-2-------------------------------2-----------------------------------------|
E|-----------------3-----------------------2-------3-------------------------|


CHORUS CONT'D: "I hang you up and then I pull you down"
e|---------------------------------------------------------------------------|
B|-------3-------3-3333333333333333------------------------------------------|
G|-----2-------2---2222222222222222------------------------------------------|
D|---0-------0-----0000000000000000------------------------------------------|
A|-2---------------xxxxxxxxxxxxxxxx------------------------------------------|
E|---------2-------3333333333333333------------------------------------------|


BRIDGE: 2X "I get lost sometimes..."
e|---------------------------------------------------------------------------|
B|-3333333333333333-3333333333333333-3333333333333333-3333333333333333-------|
G|-2222222222222222-2222222222222222-2222222222222222-2222222222222222-------|
D|-0000000000000000-0000000000000000-0000000000000000-2222222222222222-------|
A|-2222222222222222-xxxxxxxxxxxxxxxx-xxxxxxxxxxxxxxxx-0000000000000000-------|
E|------------------3333333333333333-2222222222222222------------------------|


e|---------------0~----------------------------------------------------------|
B|-------3-----3---------3-----3---------------------------------------------|
G|-----2-----2---------2-----2---2-------------------------------------------|
D|---0-----0---------0-----0-------------------------------------------------|
A|-2-------------------------------------------------------------------------|
E|-----------------3---------------------------------------------------------|


CHORUS: 4X "It's hard to see you we are older now..."
e|---------------0~----------------------------------------------0~----------|
B|-------3-----3---------3-----3---------3-------3-------3-----3-------------|
G|-----2-----2---------2-----2---2-----2-------2-------2-----2---------------|
D|---0-----0---------0-----0---------0-------0-------0-----0-----------------|
A|-2-------------------------------2-----------------------------------------|
E|-----------------3-----------------------2-------3-------------------------|


CHORUS CONT'D: "I hang you and then I pull you down..."
e|-------------------------------0~------------------------------------------|
B|-------3-------3-------3-----3---------3-------3-3333333333333333----------|
G|-----2-------2-------2-----2---------2-------2---2222222222222222----------|
D|---0-------0-------0-----0---------0-------0-----0000000000000000----------|
A|-2-------------------------------2---------------xxxxxxxxxxxxxxxx----------|
E|---------2-------3-----------------------2-------3333333333333333----------|


OUTRO: "I don't hear music anymore..."
e|---------------------------------------------------------------------------|
B|-33333333-33333333-33333333-3333-3333-33333333-3~--------------------------|
G|-22222222-22222222-22222222-2222-2222-22222222-2~--------------------------|
D|-00000000-00000000-00000000-0000-0000-00000000-0~--------------------------|
A|----------xxxxxxxx----------2222-0000-22222222-x~--------------------------|
E|----------33333333-----------------------------3~--------------------------|



************************************

| /   slide up
| \   slide down
| h   hammer-on
| p   pull-off
| ~   vibrato
| +   harmonic
| x   Mute note
| b   Bend
| pb  Pre-bend
| br  Bend release
| pbr Pre-bend release
| brb Bend release bend

************************************
Tap to rate this tab
 
# A B C D E F G H I J K L M N O P Q R S T U V W X Y Z