Song name
# A B C D E F G H I J K L M N O P Q R S T U V W X Y Z

Yellowcard - Sing For Me chords

This is an Acoustic Tab/Chords for the song "Sing for me" by Yellowcard in their latest 
weapon, When you're through thinking, say yes.

for the strumming, just listen to the song.

please comment!
[for comments and suggestions]
email:halfbloodlineprince@yahoo.com
thanks for viewing my tab! :D

Tuning: Drop D
Intro:
E--x-----x-----x-----x-----|
B--x-----x-----x-----x-----|
G--5-----x-----x-----5-----|
D--5-----7-----3-----5-----|
A--3-----7-----3-----3-----|
D--0-----7-----3-----0-----|

Verse 1:
Look at me, listen close
So I can tell you how I feel before I go
Just a year, it's not much time
For me to show you
I am proud that you are mine
E--x-----x-----x-----x-----|
B--x-----x-----x-----x-----|
G--5-----x-----x-----5-----|
D--5-----7-----3-----5-----|
A--3-----7-----3-----3-----|
D--0-----7-----3-----0-----|

Refrain:
I wish I had known
The future in my heart was just about to start
E--x------x----x-----x----|
B--x------x----x-----x----|
G--10-----x----x-----x----|
D--10-----7----10----3----|
A--8------7----10----3----|
D--0------7----10----3----|

Chorus:
Say tomorrow, I can't follow you there
Just close your eyes and sing for me
I will hear you, Always near you
I'll give you the words
Just sing for me
E--x----x----x----x-----|
B--x----x----x----x-----|
G--5----x----x----x-----|
D--5----3----7----3-----|
A--3----3----7----3-----|
D--0----3----7----3-----|

Verse 2:
Every lock, on every door
I put them there
To try and hide you from the world
And you kicked, yeah you screamed
You never understood you're everything to me
E--x-----x-----x-----x-----|
B--x-----x-----x-----x-----|
G--5-----x-----x-----5-----|
D--5-----7-----3-----5-----|
A--3-----7-----3-----3-----|
D--0-----7-----3-----0-----|

Refrain 2:
I just hope you know
The future in your heart is just about to start
E--x------x----x-----x----|
B--x------x----x-----x----|
G--10-----x----x-----x----|
D--10-----7----10----3----|
A--8------7----10----3----|
D--0------7----10----3----|

[Repeat Chorus]

Bridge:
No looking back when I am gone
Follow your heart its never wrong
No looking back when I am gone
Don't second guess the note you're on
E--x-----x-----|
B--x-----x-----|
G--x-----x-----|
D--7-----3-----|
A--7-----3-----|
D--7-----3-----|

then:
Out of time, all out of fight
You are the only thing in life that I got right
E--x-----x-----x-----|
B--x-----x-----x-----|
G--5-----x-----x-----|
D--5-----7-----3-----|
A--3-----7-----3-----|
D--0-----7-----3-----|

[Repeat Chorus] 2x
Tap to rate this tab
 
# A B C D E F G H I J K L M N O P Q R S T U V W X Y Z