Yellowcard - With You Around tab

Tabbed by: Joshua Garcia (halofreak731@aol.com)

Tabs for the song: With You Around by Yellowcard
Please rate and let me know if you have any corrections. Thank you.


Tuning: Drop D (D A D G B E)


Intro
Guitar 1/2
E||-------------------------------------------------------------------------------------|
B||-------------------------------------------------------------------------------------|
G||-------------------------------------------------------------------------------------|
D||-------------------------------------------------------------------------------------|
A||--5-5-4-4-4-4---------5-5-4-4-4------------5-5-4-4-4-4---------5-5-4-4-4-------------|
D||--0-0-0-0-0-0--'5-'5--0-0-0-0-0--'5-'5-'5--5-5-5-5-5-5--'4-'4--5-5-5-5-5--'4-'4-'4---|



Verse
Guitar 1/2:
E||---------------------------------------------------------------------------|
B||---------------------------------------------------------------------------|
G||---------------------------------------------------------------------------| x2
D||---------------------------------------------------------------------------|
A||--5-5-4-4-4-4---------5-5-4-4-4------------5-5-4-4-4-4---------5-5-4-4-4---|
D||--0-0-0-0-0-0---------0-0-0-0-0------------5-5-5-5-5-5---------5-5-5-5-5---|



Pre-Chorus
Guitar 1:
E||----10---10---10---10---9---9-------------------------------------------------|
B||--------------------------------10---10---8---8---8---8---7---7---8---8-------|
G||--7----7----7----7----7---7---7----7----7---7---7---7---7---7---7---7---(7)---| x2
D||------------------------------------------------------------------------------|
A||------------------------------------------------------------------------------|
D||------------------------------------------------------------------------------|
     .    .    .    .    .   .   .             .   .   .   .   .   .


Guitar 2:
E||---------------------------------------------------------------------------|
B||---------------------------------------------------------------------------|
G||---------------------------------------------------------------------------| x2
D||---------------------------------------------------------------------------|
A||--9-9-9-9-9-9---------7-7-7-7-7------------5-5-5-5-5-5---------5-5-5-5-5---|
D||--9-9-9-9-9-9---------7-7-7-7-7------------5-5-5-5-5-5---------5-5-5-5-5---|



Chorus
Guitar 1/2:
E||----------------------------------|
B||----------------------------------|
G||----------------------------------| x2
D||-9-9-9---5-5---0---0-0-0---0-0-0--|
A||-9-9-9---5-5---0---0-0-0---0-0-0--|
D||-9-9-9---5-5---0---0-0-0---0-0-0--|


E||-----------------------------------------|
B||-----------------------------------------|
G||-----------------------------------------|
D||-9-9-9---7-7---12---12-12-12---12-12-12--|
A||-9-9-9---7-7---12---12-12-12---12-12-12--|
D||-9-9-9---7-7---12---12-12-12---12-12-12--|


Guitar 1:
E||-----------------------------------------------------------------------|
B||-----------------------------------------------------------------------|
G||--12-12-12-12-12-12-12-12-11-11-11-11-11-11-11-11-9-9-9-9-9-9-9-9--2~--|
D||--x--x--x--x--x--x--x--x--x--x--x--x--x--x--x--x--x-x-x-x-x-x-x-x--x~--|
A||--10-10-10-10-10-10-10-10-9--9--9--9--9--9--9--9--7-7-7-7-7-7-7-7--0~--|
D||-----------------------------------------------------------------------|


Guitar 2:
E||--------------------------------|
B||--------------------------------|
G||--------------------------------|
D||-22222222-99999999-77777777-7~--|
A||-22222222-99999999-77777777-7~--|
D||-22222222-99999999-77777777-7~--|



Verse
Guitar 1/2
E||-------------------------------------------------------------------------------------|
B||-------------------------------------------------------------------------------------|
G||-------------------------------------------------------------------------------------| x3
D||-------------------------------------------------------------------------------------|
A||--5-5-4-4-4-4---------5-5-4-4-4------------5-5-4-4-4-4---------5-5-4-4-4-------------|
D||--0-0-0-0-0-0--'5-'5--0-0-0-0-0--'5-'5-'5--5-5-5-5-5-5--'4-'4--5-5-5-5-5--'4-'4-'4---|



Pre-Chorus
Guitar 1:
E||----10---10---10---10---9---9-------------------------------------------------|
B||--------------------------------10---10---8---8---8---8---7---7---8---8-------|
G||--7----7----7----7----7---7---7----7----7---7---7---7---7---7---7---7---(7)---| x2
D||------------------------------------------------------------------------------|
A||------------------------------------------------------------------------------|
D||------------------------------------------------------------------------------|
     .    .    .    .    .   .   .             .   .   .   .   .   .


Guitar 2:
E||---------------------------------------------------------------------------|
B||---------------------------------------------------------------------------|
G||---------------------------------------------------------------------------| x2
D||---------------------------------------------------------------------------|
A||--9-9-9-9-9-9---------7-7-7-7-7------------5-5-5-5-5-5---------5-5-5-5-5---|
D||--9-9-9-9-9-9---------7-7-7-7-7------------5-5-5-5-5-5---------5-5-5-5-5---|



Chorus
Guitar 1/2:
E||----------------------------------|
B||----------------------------------|
G||----------------------------------| x2
D||-9-9-9---5-5---0---0-0-0---0-0-0--|
A||-9-9-9---5-5---0---0-0-0---0-0-0--|
D||-9-9-9---5-5---0---0-0-0---0-0-0--|


E||-----------------------------------------|
B||-----------------------------------------|
G||-----------------------------------------|
D||-9-9-9---7-7---12---12-12-12---12-12-12--|
A||-9-9-9---7-7---12---12-12-12---12-12-12--|
D||-9-9-9---7-7---12---12-12-12---12-12-12--|


Guitar 1:
E||-----------------------------------------------------------------------------------|
B||-----------------------------------------------------------------------------------|
G||--12-12-12-12-12-12-12-12-11-11-11-11-11-11-11-11-9-9-9-9-9-9-9-9-2-2-2-2-2-2-2-2--|
D||--x--x--x--x--x--x--x--x--x--x--x--x--x--x--x--x--x-x-x-x-x-x-x-x-x-x-x-x-x-x-x-x--|
A||--10-10-10-10-10-10-10-10-9--9--9--9--9--9--9--9--7-7-7-7-7-7-7-7-0-0-0-0-0-0-0-0--|
D||-----------------------------------------------------------------------------------|


Guitar 2:
E||-------------------------------------|
B||-------------------------------------|
G||-------------------------------------|
D||-22222222-99999999-7777777777777777--|
A||-22222222-99999999-7777777777777777--|
D||-22222222-99999999-7777777777777777--|



Solo
Guitar 1:
E||----------------------------------------------------------------------------| \
B||---------10-10-10-10-10-----------------------------------------------------|  \
G||---7-7-7----------------6-6-6-7-7-7-7---7/9-9-9-9b11-9-9-7-6-6-6-6-6-7-6-7--|   \
D||--------------------------------------7-------------------------------------|    \
A||----------------------------------------------------------------------------|     \
D||----------------------------------------------------------------------------|      \
                                                                                       \
                                                                                       / x2
E||----------------------------------------------------------------------------|      /
B||---------10-10-10-10-10-----------------------------------------------------|     /
G||---7-7-7----------------6-6-6-7-7-7-7-7-7-11-9b--7-11-9b--7-11-9b--7-6-7----|    /
D||----------------------------------------------------------------------------|   /
A||----------------------------------------------------------------------------|  /
D||----------------------------------------------------------------------------| /


Guitar 2:
E||--------------------------------------------------------------------|
B||--------------------------------------------------------------------|
G||--------------------------------------------------------------------|
D||-55555555999999997777777777777777-55555555999999994444444455555555--|
A||-55555555999999997777777777777777-55555555999999994444444455555555--|
D||-55555555999999997777777777777777-55555555999999994444444455555555--|


E||-----------------------------------|
B||-----------------------------------|
G||-----------------------------------| x2
D||-55555555999999997777777777777777--|
A||-55555555999999997777777777777777--|
D||-55555555999999997777777777777777--|




Bridge
Guitar 1:
E||--10---10---10---10---9---9----------------------------------|
B||------------------------------10---10---8---8---8---8---7-7--|
G||-----7----7----7----7---7---7----7----7---7---7---7---7------|
D||-------------------------------------------------------------|
A||-------------------------------------------------------------|
D||-------------------------------------------------------------|
        .    .    .    .   .   .         .   .   .   .   .



Chorus
Guitar 1/2:
E||----------------------------------|
B||----------------------------------|
G||----------------------------------| x2
D||-9-9-9---5-5---0---0-0-0---0-0-0--|
A||-9-9-9---5-5---0---0-0-0---0-0-0--|
D||-9-9-9---5-5---0---0-0-0---0-0-0--|


E||-----------------------------------------|
B||-----------------------------------------|
G||-----------------------------------------|
D||-9-9-9---7-7---12---12-12-12---12-12-12--|
A||-9-9-9---7-7---12---12-12-12---12-12-12--|
D||-9-9-9---7-7---12---12-12-12---12-12-12--|


E||----------------------------------|
B||----------------------------------|
G||----------------------------------| x2
D||-9-9-9---5-5---0---0-0-0---0-0-0--|
A||-9-9-9---5-5---0---0-0-0---0-0-0--|
D||-9-9-9---5-5---0---0-0-0---0-0-0--|


E||-----------------------------------------|
B||-----------------------------------------|
G||-----------------------------------------|
D||-9-9-9---7-7---12---12-12-12---12-12-12--|
A||-9-9-9---7-7---12---12-12-12---12-12-12--|
D||-9-9-9---7-7---12---12-12-12---12-12-12--|


Guitar 1:
E||-----------------------------------------------------------------------------------|
B||-----------------------------------------------------------------------------------|
G||--12-12-12-12-12-12-12-12-11-11-11-11-11-11-11-11-9-9-9-9-9-9-9-7-6-6-6-6-6-6-6-6--|
D||--x--x--x--x--x--x--x--x--x--x--x--x--x--x--x--x--x-x-x-x-x-x-x-x-x-x-x-x-x-x-x-x--|
A||--10-10-10-10-10-10-10-10-9--9--9--9--9--9--9--9--7-7-7-7-7-7-7-5-4-4-4-4-4-4-4-4--|
D||-----------------------------------------------------------------------------------|


E||-----------------------------------------------------------------------|
B||-----------------------------------------------------------------------|
G||--12-12-12-12-12-12-12-12-11-11-11-11-11-11-11-11-9-9-9-9-9-9-9-9--2~--|
D||--x--x--x--x--x--x--x--x--x--x--x--x--x--x--x--x--x-x-x-x-x-x-x-x--x~--|
A||--10-10-10-10-10-10-10-10-9--9--9--9--9--9--9--9--7-7-7-7-7-7-7-7--0~--|
D||-----------------------------------------------------------------------|


Guitar 2:
E||-------------------------------------|
B||-------------------------------------|
G||-------------------------------------|
D||-22222222-99999999-7777777777777777--|
A||-22222222-99999999-7777777777777777--|
D||-22222222-99999999-7777777777777777--|


E||--------------------------------|
B||--------------------------------|
G||--------------------------------|
D||-55555555-99999999-77777777-7~--|
A||-55555555-99999999-77777777-7~--|
D||-55555555-99999999-77777777-7~--|



Outro
Guitar 1/2:
E||---------------------------------------------------------------------------|
B||---------------------------------------------------------------------------|
G||---------------------------------------------------------------------------|
D||---------------------------------------------------------------------------|
A||--5-5-4-5-5-5---------5-5-4-5-5------------5-5-4-5-5-5---------5-5-4-5-5---|
D||--0-0-0-0-0-0--'5-'5--0-0-0-0-0--'5-'5-'5--0-0-0-0-0-0--'5-'5--0-0-0-0-0---|





Tablature Legend
----------------
 h   - hammer-on
 p   - pull-off
 b   - bend
 r   - release bend
 *   - pinch harmonic
 '   - natural harmonic
 x   - mute note
 .   - palm mute
 /   - slide down
 \   - slide up
Tap to rate this tab
 
# A B C D E F G H I J K L M N O P Q R S T U V W X Y Z