Song name
# A B C D E F G H I J K L M N O P Q R S T U V W X Y Z

Yellowcard - Me First tab

Tabbed by:RAZMAN69
Email:supperatthebigtable@hotmail.com

Tuning:standard


Verse  REPEAT 2 times
E|------------------------------------------|
B|------------------------------------------|
G|------------------------------------------|
D|---77777777-22222222-44444444-666-777-6-7-|
A|---77777777-22222222-44444444-666-777-6-7-|
E|---55555555-00000000-22222222-444-555-4-5-|
P.M. ******** ******** ******** *** *** * *

        REPEAT 2 times
E|------------------------------------------|
B|------------------------------------------|
G|------------------------------------------|
D|---77777777-22222222-44444444-666-777-6-7-|
A|---77777777-22222222-44444444-666-777-6-7-|
E|---55555555-00000000-22222222-444-555-4-5-|

Pre-Chorus 
E|------------------------------|
B|------------------------------|
G|------------77777777----------|
D|---44444444-77777777-77777777-|
A|---44444444-55555555-77777777-|
E|---22222222----------55555555-|

Chorus REPEAT 3 times and on last time play the peace below
E|-------------------------------------|
B|-------------------------------------|
G|----------------7-------7------------|
D|---44444444---7---7---7---7-77777777-|
A|---44444444-5-------5-------77777777-|
E|---22222222-----------------55555555-|

REPEAT 4 times
E|----------|
b|----------|
G|----------|
D|---7777-7-|
A|---7777-7-|
E|---5555-5-|
P.M. **** 

Solo part 1
E|------------------------------------------------------------------------|
B|------------------------------------------------------------------------|
G|------------------------------------------------------------------------|
D|------------------6-7-9-7-9-7-9-11-9-7-9-11-9-7-9---7---999-10-9-7-9-11-|
A|---7-5-7-9-7-5-4--------------------------------------------------------|
E|------------------------------------------------------------------------|

Solo part 2
E|-----------------------------------------------------------|
B|---10--9-10--9-10--9-10-12-10-12-14-12-10-9-7-9-10-12-10-9-|
G|-----------------------------------------------------------|
D|-----------------------------------------------------------|
A|-----------------------------------------------------------|
E|-----------------------------------------------------------|

Outro REPEAT 3 times
E|----------------|
B|------------10--|
G|----------9-----|
D|---7-9-11-------|
A|----------------|
E|----------------|
Tap to rate this tab
 
# A B C D E F G H I J K L M N O P Q R S T U V W X Y Z