Song name
# A B C D E F G H I J K L M N O P Q R S T U V W X Y Z

Yellowcard - Soundtrack tab

Drop D
*Note:  You can omit the g-string notes on rhythm guitar if you want to for the intro, verses
and the outro.

Intro (There's an extra lead in the intro.  This will be lead 2.  Tried tabbing up when each
guitar plays when.)

Rhythm (The chords for the second time around are in the parenthesis.)
e--------------------------------------------------------------------------------------|
b--------------------------------------------------------------------------------------|
g-5-5--(-5-5----5-5-5-5-)--10-10-(-10-10--10-10-10-10-)--------------------------------|
d-3-3--(-3-3----5-5-5-5-)---8--8-(--8--8--10-10-10-10-)-0-0----(--0-0-----0-0-0-0--)---|
a-3-3--(-3-3----3-3-3-3-)---8--8-(--8--8---8--8--8--8-)-0-0----(--0-0-----0-0-0-0--)---|
d-3-3--(-3-3----3-3-3-3-)---8--8-(--8--8---8--8--8--8-)-0-0----(--0-0-----0-0-0-0--)---|

Lead 1 (Higher Octaves)
e--------------------------------------------------------------------------------------|
b--------------------------------------------------------------------------------------|
g-----10101010-12121212-9999-----9999-12121212-10101010-----14141414-12121212-17171717-|
d------x-x-x-x--x-x-x-x-xxxx-----xxxx--x-x-x-x--x-x-x-x------x-x-x-x--x-x-x-x--x-x-x-x-|
a------8-8-8-8-10101010-7777-----7777-10101010--8-8-8-8-----12121212-10101010-15151515-|
d--------------------------------------------------------------------------------------|

Lead 2 (Lower Octaves)
e--------------------------------------------------------------------------------------|
b--------------------------------------------------------------------------------------|
g------10101010--9999--5555-------5555--9999--10101010--------10101010--9999--12121212-|
d-------x-x-x-x--xxxx--xxxx-------xxxx--xxxx---x-x-x-x---------x-x-x-x--xxxx---x-x-x-x-|
a-------8-8-8-8--7777--3333-------3333--7777---8-8-8-8---------8-8-8-8--7777--10101010-|
d--------------------------------------------------------------------------------------|

Rhythm
e------------------------------------------|
b------------------------------------------|
g-10-10-10-10---10-10-10-5-5-5-5--5-5-5-5--|
d--8--8--8--8---10-10-10-2-2-2-2--3-3-3-3--|
a--8--8--8--8----8--8--8-3-3-3-3--3-3-3-3--|
d--8--8--8--8----8--8--8-2-2-2-2--3-3-3-3--|

Lead 1 (Higher Octaves)
e-----------------------------------------|
b-----------------------------------------|
g-14-14-14-14--17-17-17-12121212-14141414-|
d--x--x--x--x---x--x--x--x-x-x-x--x-x-x-x-|
a-12-12-12-12--15-15-15-10101010-12121212-|
d-----------------------------------------|

Lead 2 (Lower Octaves)
e-----------------------------------------|
b-----------------------------------------|
g-10-10-10-10--12-12-12--9-9-9-9-10101010-|
d--x--x--x--x---x--x--x--x-x-x-x--x-x-x-x-|
a--8--8--8--8--10-10-10--7-7-7-7--8-8-8-8-|
d-----------------------------------------|

Verse
Rhythm
e-------------------------------------------------------------------------|
b-------------------------------------------------------------------------|
g-10---10-10-10--10-10-12---12-12-12--12-12----------------5---5-5-5--5-5-|
d--8----8--8--8---8--8-10---10-10-10--10-10-0---0-0-0--0-0-3---3-3-3--3-3-|
a--8----8--8--8---8--8-10---10-10-10--10-10-0---0-0-0--0-0-3---3-3-3--3-3-|
d--8----8--8--8---8--8-10---10-10-10--10-10-0---0-0-0--0-0-3---3-3-3--3-3-|

Lead (This part was REALLY tricky to tab since the 10s are palm muted.)
e-------13----------12-13----------15-15----13-12-|
b-------------13-------------13----------13-------|
g-10-10----10----10-------10----10----------------| 3x
d-------------------------------------------------|
a-------------------------------------------------|
d-------------------------------------------------|

e-12-------------------12---------------------|
b----13--------------------13-----------------|
g-------12-10-12-10------------10-12-10-12-10-|
d---------------------------------------------|
a---------------------------------------------|
d---------------------------------------------|

Pre-Chorus
e---------------------------------------------------------------|
b---------------------------------------------------------------|
g---------------------------------------------------------------|
d-8-8--8-8-8--8-8-8--8-8-8--10-10--10-10-10--10-10-10--10-10-10-|
a-5-5--5-5-5--5-5-5--5-5-5---8--8---8--8--8---8--8--8---8--8--8-|
d-5-5--5-5-5--5-5-5--5-5-5---8--8---8--8--8---8--8--8---8--8--8-|

Chorus
Part 1
Rhythm
e----------------------------------------------------|
b----------------------------------------------------|
g----------------------------------------------------|
d-3333333333333333-8888888888888888-0000000000000000-|
a-3333333333333333-8888888888888888-0000000000000000-|
e-3333333333333333-8888888888888888-0000000000000000-|

Lead (Played really faintly)
e---------|
b---------| Repeat
g---------|  until
d-0-2-4-5-| next pt.
a---------|
d---------|

Part 2
Rhythm
e--------------------------------|
b--------------------------------|
g-10101010--121212-9999-10101010-|
d--x-x-x-x---x-x-x-xxxx--x-x-x-x-|
a--8-8-8-8--101010-7777--8-8-8-8-|
d--------------------------------|

Lead
e------------------------------------|
b------------------------------------|
g-14141414--171717-12121212-14141414-|
d--x-x-x-x---x-x-x--x-x-x-x--x-x-x-x-|
a-12121212--151515-10101010-12121212-|
d------------------------------------|

Verse 2
Lead Guitar Verse

Rhythm (Palm mute when you need to)
e---------------------------------------------------------------------------|
b---------------------------------------------------------------------------|
g-101010101010101010101010-1010101010101010101010--------------555555555555-|
d--8-8-8-8-8-8-8-8-8-8-8-8--7-7-7-7-7-7-7-7-7-7-7-000000000000-333333333333-|
a--8-8-8-8-8-8-8-8-8-8-8-8--8-8-8-8-8-8-8-8-8-8-8-000000000000-333333333333-|
d--8-8-8-8-8-8-8-8-8-8-8-8--7-7-7-7-7-7-7-7-7-7-7-000000000000-333333333333-|

Pre-Chorus
Chorus

Bridge
e-------------------------------------------------------------------------------------------|
b-------------------------------------------------------------------------------------------|
g--------------------------------------2222-3333---------------------------------------22-3-|
d-22222222-1010101010101010---0-0--0-0-3333-3333--22222222-1010101010101010---0-0--0-0-33-3-|
a-33333333--8-8-8-8-8-8-8-8---0-0--0-0-0000-1111--33333333--8-8-8-8-8-8-8-8---0-0--0-0-00-1-|
d-22222222--8-8-8-8-8-8-8-8---0-0--0-0------------22222222--8-8-8-8-8-8-8-8---0-0--0-0------|

e-----------------------------------------------|
b-----------------------------------------------|
g-------------------------------------2222-3333-| 3x
d-22222222-1010101010101010--0-0--0-0-3333-3333-|
a-33333333--8-8-8-8-8-8-8-8--0-0--0-0-0000-1111-|
d-22222222--8-8-8-8-8-8-8-8--0-0--0-0-----------|

e-------------------------------------------|
b-------------------------------------------|
g-------------------------------------------|
d-22222222-10101010101010101010101010101010-|
a-33333333--8-8-8-8-8-8-8-8-8-8-8-8-8-8-8-8-|
d-22222222--8-8-8-8-8-8-8-8-8-8-8-8-8-8-8-8-|

Chorus
Play the intro as you would for the second time around.

Ending
e---------------------------------------------------------|
b---------------------------------------------------------|
g-555555555555-101010101010101010101010--------------10~--|
d-333333333333--8-8-8-8-8-8-8-8-8-8-8-8-000000000000-10~--|
a-333333333333--8-8-8-8-8-8-8-8-8-8-8-8-000000000000--8~--|
d-333333333333--8-8-8-8-8-8-8-8-8-8-8-8-000000000000--8~--|
Tap to rate this tab
 
# A B C D E F G H I J K L M N O P Q R S T U V W X Y Z