Yellowcard - One Year Six Months tab

-----------------------------------------------------------------------------
		     One Year Six Months - Yellowcard
-----------------------------------------------------------------------------
Tabbed by: Alex Aydell
Email: aaydel1@yahoo.com

Tuning: D A D G G D

Cool tuning with alot of fast alternate strumming and picking- I tried to space the tabs 
in sync with the timing and added my personal strumming pattern(d= downstroke; 
u=upstroke)in attempt to make things easier.
Hope it helps! You can also search highdrat3r on youtube for a shortened instrumental of this.


============================================================================
Intro
============================================================================
(Guitar 1):
   d  u  d u  d u d u  ud ud ud  u     d  u  d u d u d u  ud ud ud
D|-12-12-x-10-x-9-x-7--77-77-77-(7)/10-10-10-x-9-x-7-x-5--55-55-55----------|
G|-0--0--0-0--0-0-0-0--00-00-00---------0--0-0-0-0-0-0-0--00-00-00----------|
G|-0--0----0----0---0-------------------0--0---0---0---0--------------------|
D|--------------------------------------------------------------------------|
A|--------------------------------------------------------------------------|
D|--------------------------------------------------------------------------|
    u     d  u  d u  d u d ud d ud d u du du du du du du du du
D|-(5)/12-12-12-x-10-x-9-x-77-x-99-x-5-55-55-55-54-44-44-44-44--------------|
G|--------0--0--0-0--0-0-0-00-0-00-0-0-00-00-00-00-00-00-00-00--------------|
G|--------0--0----0----0---00---00---0-----------0--------------------------|
D|--------------------------------------------------------------------------|
A|--------------------------------------------------------------------------|
D|--------------------------------------------------------------------------|
    u     d  u  d u  d u d u  ud ud ud  u     d  u  d u d u d u  ud ud ud
D|-(4)/12-12-12-x-10-x-9-x-7--77-77-77-(7)/10-10-10-x-9-x-7-x-5--55-55-55---|
G|--------0--0--0-0--0-0-0-0--00-00-00--------0--0--0-0-0-0-0-0--00-00-00---|
G|--------0--0----0----0---0------------------0--0----0---0---0-------------|
D|--------------------------------------------------------------------------|
A|--------------------------------------------------------------------------|
D|--------------------------------------------------------------------------|

    u     d  u  d u  d u d ud d ud d u du du du du d u  d u ud u
D|-(5)/12-12-12-x-10-x-9-x-77-x-99-x-5-55-55-55-54-4-4--4-4-44-4/5~~~-------|
G|--------0--0--0-0--0-0-0-00-0-00-0-0-00-00-00-00-0-0--0-0-00-0~~~~~-------|
G|--------0--0----0----0---00---00---0-----------0-------------0~~~~~-------|
D|--------------------------------------------------------------------------|
A|--------------------------------------------------------------------------|
D|--------------------------------------------------------------------------|
============================================================================
 (Guitar 2): play twice

   d  u  d u  d  u  d    u    d  u  d u  d  u  d   u   d  u  d u  d  u  d
D|--------------------------------------------------------------------------|
G|-------0-0--------0---------------0-0--------0-------------0-0--------0---|
G|-0--0--0-0--0--0--0---------0--0--0-0--0--0--0-------0--0--0-0--0--0--0---|
D|-12-12-1212-12-12-12--(12)--12-12-1212-12-12-12-(12)-12-12-1212-12-12-12--|
A|-10-10-1010-10-10-10--(10)--9--9--9-9--9--9--9--(9)--7--7--7-7--7--7--7---|
D|-x--x--x-x--x--x--x----x----x--x--x-x--x--x--x---x---x--x--x-x--x--x--x---|

    u   d u d u d u d   u   d u d u d u   d  u d  d  u d
D|--------------------------------------------------------------------------|
G|----------0-0-----0-----------0-0-----------------------------------------|
G|------0-0-0-0-0-0-0-------0-0-0-0-0-0------0-0-----0-0--------------------|
D|-(12)-7-7-7-7-7-7-7--(7)--5-5-5-5-5-5---x--5-5--x--5-5--------------------|
A|-(7)--5-5-5-5-5-5-5--(5)--3-3-3-3-3-3---x--2-2--x--3-3--------------------|
D|--x---x-x-x-x-x-x-x---x---x-x-x-x-x-x---x--x-x--x--x-x--------------------|

    d  u d    d u d u d  u  d u d u d u  d
D|--------------------------------------------------------------------------|
G|------------0-0-----0---------0-0-----------------------------------------|
G|-----0-0----0-0-0-0-0-----0-0-0-0-0-0-------------------------------------|
D|-(5)-5-5/7--7-7-7-7-7-(7)-7-7-7-7-7-7-(7)/--------------------------------|
A|-(3)-3-3/5--5-5-5-5-5-(5)-4-4-4-4-4-4-(4)/--------------------------------|
D|--x--x-x----x-x-x-x-x--x--x-x-x-x-x-x--x----------------------------------|
============================================================================
============================================================================
Verse
============================================================================
(Guitar 2 starts it off and Guitar 1 can join in)

   d d u d d  u d u  d d u d d u d u  d d u  d d u d u  d d u d d u d u
D|--------------------------------------------------------------------------|
G|--------------------------------------------------------------------------|
G|------------0----------------0-----------------0----------------0---------|
D|-----12--------12-----12---------12-----12---------12-----7---------7-----|
A|-1010--1010--10----9-9---9-9---9----7-7----7-7---7----5-5---5-5---5-------|
D|--------------------------------------------------------------------------|

   d d u d d u d u d d u d d u d u d d u d d u d u d d u d d u d u
D|--------------------------------------------------------------------------|
G|--------------------------------------------------------------------------|
G|---------------0---------------0-----------0---------------0--------------|
D|-----5-----0---------5-----0---------7---------7-----7---------7/---------|
A|-3-3---3-3---3---2-2---2-2---2---5-5---5-5---5---5-5---5-5---5------------|
D|--------------------------------------------------------------------------|

        d d u  d d u d u  d d u d d u d u  d d u  d d u d u  d d u d d u d u
D|--------------------------------------------------------------------------|
G|--------------------------------------------------------------------------|
G|-----------------0----------------0-----------------0----------------0----|
D|/(12)-----12---------12----12---------12-----12---------12-----7---------7|
A|------1010--1010--10----9-9---9-9---9----7-7----7-7---7----5-5---5-5---5--|
D|--------------------------------------------------------------------------|

   d d u d d u d u d d u d d u d u d d u d d u d u  d d u u d u u d u u
D|----------------------------------------------------------------------------|
G|----------------------------------------------------------------------------|
G|---------------0---------------0-----------0----------0-----0-----0---------|
D|-----5-----0---------5-----0---------7---------7----7---7-----7-----7-------|
A|-3-3---3-3---3---2-2---2-2---2---5-5---5-5---5----5-------5-----5-----------|
D|----------------------------------------------------------------------------|
============================================================================
============================================================================
Chorus
============================================================================
(Guitar 1 & 2): play 4 times

   d u du d u d  u  d u du d u d  u  d u du d u d  u  d u du d u d  u
D|-------------------------------------------------------------------------|
G|-----00-----0---------00-----0---------00-----0---------00-----0---------|
G|-0-0-00-0-0-0-----0-0-00-0-0-0-----0-0-00-0-0-0-----0-0-00-0-0-0---------|
D|-2-2-22-2-2-2-(2)-0-0-00-0-0-0-(0)-5-5-55-5-5-5-(5)-7-7-77-7-7-7-(7)-----|
A|-2-2-22-2-2-2-(2)-5-5-55-5-5-5-(5)-3-3-33-3-3-3-(3)-5-5-55-5-5-5-(5)-----|
D|-2-2-22-2-2-2-(2)-x-x-xx-x-x-x-(x)-x-x-xx-x-x-x-(x)-x-x-xx-x-x-x-(x)-----|
============================================================================
============================================================================
Intro
Verse
Chorus x4
============================================================================
Bridge
============================================================================
Guitar 1: play 3 times

   d  u  d u  d u d u  ud ud ud  u     d  u  d u d u d u  ud ud ud
D|-12-12-x-10-x-9-x-7--77-77-77-(7)/10-10-10-x-9-x-7-x-5--55-55-55---------|
G|-0--0--0-0--0-0-0-0--00-00-00---------0--0-0-0-0-0-0-0--00-00-00---------|
G|-0--0----0----0---0-------------------0--0---0---0---0-------------------|
D|-------------------------------------------------------------------------|
A|-------------------------------------------------------------------------|
D|-------------------------------------------------------------------------|

   u      d u  d  u d u d u u du d u d u ud u du du ud ud ud
D|-5/(12)-1212-x-10-x-9-x-7-7-77-x-9-x-9-99-9-99-97-77-77-77/--------------|
G|--------0-0--0--0-0-0-0-0-0-00-0-0-0-0-00-0-00-00-00-00-00---------------|
G|--------0-0-----0---0---0-0-00---0---0-00-0-00--0-00-00-00---------------|
D|-------------------------------------------------------------------------|
A|-------------------------------------------------------------------------|
D|-------------------------------------------------------------------------|
============================================================================
Guitar 2:

D|-------------------------------------------------------------------------|
G|-------------------------------------------------------------------------|
G|-------------------------------------------------------------------------|
D|-------------------------------------------------------------------------|
A|-------------------------------------------------------------------------|
D|-------------------------------------------------------------------------|

   u      d u  d  u d u d u u du d u d u ud u du du ud ud ud
D|-5/(12)-1212-x-10-x-9-x-7-7-77-x-9-x-9-99-9-99-97-77-77-77/--------------|
G|--------0-0--0--0-0-0-0-0-0-00-0-0-0-0-00-0-00-00-00-00-00---------------|
G|--------0-0-----0---0---0-0-00---0---0-00-0-00--0-00-00-00---------------|
D|-------------------------------------------------------------------------|
A|-------------------------------------------------------------------------|
D|-------------------------------------------------------------------------|
   dud u ud u ududud u dud u ud u udu dudu
D|-------------------------------------------------------------------------|
G|----------0-000000---000-0-00--------------------------------------------|
G|-000-0-00-0-000000-0-000-0-00-0-000-0000---------------------------------|
D|-000-0-00-7-777777-7-555-5-55-0-000-0000---------------------------------|
A|-555-5-55-5-555555-5-333-3-33-2-222-3333---------------------------------|
D|-xxx-x-xx-x-xxxxxx-x-xxx-x-xx-x-xxx-xxxx---------------------------------|

   dud u ud u ud u ud u  dud u ud u udu dudu
D|-------------------------------------------------------------------------|
G|----------0-00-0-00-0--000-0-00-0-000-0000-------------------------------|
G|-000-0-00-0-00-0-00-0--000-0-00-0-000-0000-------------------------------|
D|-000-0-00-7-77-7-77-7--555-5-55-7-777-7777-------------------------------|
A|-555-5-55-5-55-5-55-5--333-3-33-5-555-5555-------------------------------|
D|-xxx-x-xx-x-xx-x-xx-x--xxx-x-xx-x-xxx-xxxx-------------------------------|

   dud u ud u ududud u dud u ud u udu dudu
D|-------------------------------------------------------------------------|
G|----------0-000000-0-000-0-00--------------------------------------------|
G|-000-0-00-0-000000-0-000-0-00-0-000-0000---------------------------------|
D|-000-0-00-7-777777-7-555-5-55-0-000-0000---------------------------------|
A|-555-5-55-5-555555-5-333-3-33-2-222-3333---------------------------------|
D|-xxx-x-xx-x-xxxxxx-x-xxx-x-xx-x-xxx-xxxx---------------------------------|

   dud u ud u ud u ud u  dud u ud u udu dudu
D|-------------------------------------------------------------------------|
G|----------0-00-0-00-0--000-0-00-0-000-0000-------------------------------|
G|-000-0-00-0-00-0-00-0--000-0-00-0-000-0000-------------------------------|
D|-000-0-00-7-77-7-77-7--555-5-55-7-777-7777-------------------------------|
A|-555-5-55-5-55-5-55-5--333-3-33-5-555-5555-------------------------------|
D|-xxx-x-xx-x-xx-x-xx-x--xxx-x-xx-x-xxx-xxxx-------------------------------|
============================================================================
============================================================================
Chorus/violin solo (play softly 4x)

Chorus(guitar 2) x4 & Intro(guitar 1) x2
============================================================================
============================================================================
Outro (played softly x1)
============================================================================
 (Guitar 2):
   d  u  d u  d  u  d    u    d  u  d u  d  u  d   u   d  u  d u  d  u  d
D|-------------------------------------------------------------------------|
G|-------0-0--------0---------------0-0--------0-------------0-0--------0--|
G|-0--0--0-0--0--0--0---------0--0--0-0--0--0--0-------0--0--0-0--0--0--0--|
D|-12-12-1212-12-12-12--(12)--12-12-1212-12-12-12-(12)-12-12-1212-12-12-12-|
A|-10-10-1010-10-10-10--(10)--9--9--9-9--9--9--9--(9)--7--7--7-7--7--7--7--|
D|-x--x--x-x--x--x--x----x----x--x--x-x--x--x--x---x---x--x--x-x--x--x--x--|

    u   d u d u d u d   u   d u d u d u   d   d u  d u ud  u  d
D|-------------------------------------------------------------------------|
G|----------0-0-----0-----------0-0-----0---------------------0~~~---------|
G|------0-0-0-0-0-0-0-------0-0-0-0-0-0-0--0--0-0--0-0-00--0--0~~~---------|
D|-(12)-7-7-7-7-7-7-7--(7)--5-5-5-5-5-5-5-(5)-5-5--5-5-55--5-/7~~~---------|
A|-(7)--5-5-5-5-5-5-5--(5)--3-3-3-3-3-3-3-(3)-2-2--2-2-22--2-/5~~~---------|
D|--x---x-x-x-x-x-x-x---x---x-x-x-x-x-x-x--x--x-x--x-x-xx--x--x~~~---------|
============================================================================

************************************

| /   slide up
| \   slide down
| x   mute note
| ()  note not emphasized
| ~~  let ring

************************************
Tap to rate this tab
 
# A B C D E F G H I J K L M N O P Q R S T U V W X Y Z