Song name
# A B C D E F G H I J K L M N O P Q R S T U V W X Y Z

Yellowcard - The Sound Of You And Me tab

-------------------------------------------------------------------------------
		   THE SOUND OF YOU AND ME - Yellowcard
-------------------------------------------------------------------------------
Tabbed by: Anthinator

Tuning: Drop C

This is the opening track to Yellowcard's recent album. This tab is pretty
lengthy and it's tabbed for two guitars. The lead guitar is at the top and the rhythm
is at the bottom. 

Let me know what you think. Enjoy!


-=Guitar One=- (Ryan Mendez)--------------------------------------------------


INTRO:
D|---------------------------------------------------------------------------|
A|---------------------------------------------------------------------------|
F|---------------------------------------------------------------------------|
C|---------------------------------------------------------------------------|
G|---------------------------------------------------------------------------|
C|-0~~~~~--------------------------------------------------------------------|


D|---------------------------------------------------------------------------|
A|---------------------------------------------------------------------------|
F|-7---9---11---7-11---7---9---6-----6h7-6h7p6-----6h7-6h7p6-----------------|
C|---0---0----0------0---0---0---0-0-----------7-7-----------7-7-------------|
G|---------------------------------------------------------------------------|
C|---------------------------------------------------------------------------|
     .   .    .      .   .   .   . .


D|---------------------------------------------------------------------------|
A|---------------------------------------------------------------------------|
F|-7---9---11---7-11---7---9---6-----6h7-6h7p6-----6h7-6h7p6-----------------|
C|---0---0----0------0---0---0---0-0-----------7-7-----------7-7-------------|
G|---------------------------------------------------------------------------|
C|---------------------------------------------------------------------------|
     .   .    .      .   .   .   . .


D|---------------------------------------------------------------------------|
A|---------------------------------5h7-5h7p5-----5h7-5h7p5-------------------|
F|-4---6---7---4-7---4---6---2---------------7-7-----------7-7---------------|
C|---0---0---0-----0---0---0---0-0-------------------------------------------|
G|---------------------------------------------------------------------------|
C|---------------------------------------------------------------------------| 
     .   .   .     .   .   .   . .


D|---------------------------------------------------------------------------|
A|---------------------------------5h7-5h7p5------7-5------------------------|
F|-4---6---7---4-7---4---6---2---------------7-7------7-6--------------------|
C|---0---0---0-----0---0---0---0-0-------------------------------------------|
G|---------------------------------------------------------------------------|
C|---------------------------------------------------------------------------|
     .   .   .     .   .   .   . .


VERSE: No guitar. Just pickslide going into the chorus


CHORUS: "Someday everything ends…"
D|---------------------------------------------------------------------------|
A|---------------------------------------------------------------------------|
F|-7-7--7--7--7--11-11--11--11--11-------------------------------------------|
C|-7-7--7--7--7--12-12--12--12--12--11-11--11-11-11-11--12-12--12-12-12-12---|
G|-0-0--0--0--0--0--0---0---0---0---10-10--10-10-10-10--10-10--10-10-10-10---|
C|-0-0--0--0--0--0--0---0---0---0--------------------------------------------|


D|---------------------------------------------------------------------------|
A|---------------------------------------------------------------------------|
F|-11--11--11--11--11--11--12--12--12--12--12--12--7-7--7-7-7--7-7-7--7-7-7--|
C|-9---9---9---9---9---9---9---9---9---9---9---9---5-5--5-5-5--5-5-5--5-5-5--|
G|-7---7---7---7---7---7---7---7---7---7---7---7---5-5--5-5-5--5-5-5--5-5-5--|
C|-------------------------------------------------5-5--5-5-5--5-5-5--5-5-5--|


D|---------------------------------------------------------------------------|
A|---------------------------------------------------------------------------|
F|-7-7--7--7--7--11-11--11--11--11-------------------------------------------|
C|-7-7--7--7--7--12-12--12--12--12--11-11--11-11-11-11--12-12--12-12-12-12---|
G|-0-0--0--0--0--0--0---0---0---0---10-10--10-10-10-10--10-10--10-10-10-10---|
C|-0-0--0--0--0--0--0---0---0---0--------------------------------------------|


D|---------------------------------------------------------------------------|
A|---------------------------------------------------------------------------|
F|-11-11-11-11-11-11-12-12-12-12-12-12---------------------------------------|
C|-9--9--9--9--9--9--9--9--9--9--9--9--10--10---10--10--10--10-10-10-10--10--|
G|-7--7--7--7--7--7--7--7--7--7--7--7--8---8----8---8---8---8--8--8--8---8---|
C|-------------------------------------8---8----8---8---8---8--8--8--8---8---|



INTRO:
D|---------------------------------------------------------------------------|
A|---------------------------------5h7-5h7p5-----5h7-5h7p5-------------------|
F|-4---6---7---4-7---4---6---2---------------7-7-----------7-7---------------|
C|---0---0---0-----0---0---0---0-0-------------------------------------------|
G|---------------------------------------------------------------------------|
C|---------------------------------------------------------------------------| 
     .   .   .     .   .   .   . .


D|---------------------------------------------------------------------------|
A|---------------------------------5h7-5h7p5-----5h7-5h7p5-------------------|
F|-4---6---7---4-7---4---6---2---------------7-7-----------7-7---------------|
C|---0---0---0-----0---0---0---0-0-------------------------------------------|
G|---------------------------------------------------------------------------|
C|---------------------------------------------------------------------------| 
     .   .   .     .   .   .   . .


VERSE 2: "Changing keys…"
D|---------------------------------------------------------------------------|
A|---------------------------------------------------------------------------|
F|----------------------------------------------12------11-------9-----------|
C|-----------------------------------------0-------0-------0-------0---------|
G|---------------------------------------------------------------------------|
C|---------------------------------------9----9-------9-------9-------9------|
                                         .    .       .       .       .

D|---------------------------------------------------------------------------|
A|---------------------------------------------------------------------------|
F|---------7---------------7--------------------9--------6-------7-----------|
C|---0-------0--0----0-------0--0----------0-------0-------0-------0---------|
G|---------------------------------------------------------------------------|
C|-5----5----------5----5----------------7----7-------7-------7-------7------|
   .    .          .    .                .    .       .       .       .

D|---------------------------------------------------------------------------|
A|---------------------------------------------------------------------------|
F|---------7---------------7--------------------12------11-------9-----------|
C|---0-------0--0----0-------0--0----------0-------0-------0-------0---------|
G|---------------------------------------------------------------------------|
C|-5----5----------5----5----------------9----9-------9-------9-------9------|
   .    .          .    .                .    .       .       .       .

D|---------------------------------------------------------------------------|
A|---------------------------------------------------------------------------|
F|---------7---------------7--------------------9--------6-------7-----------|
C|---0-------0--0----0-------0--0----------0-------0-------0-------0---------|
G|---------------------------------------------------------------------------|
C|-5----5----------5----5----------------7----7-------7-------7-------7------|
   .    .          .    .                .    .       .       .       .


CHORUS: "Someday everything ends…"
D|---------------------------------------------------------------------------|
A|---------------------------------------------------------------------------|
F|-7-7--7--7--7--11-11--11--11--11-------------------------------------------|
C|-7-7--7--7--7--12-12--12--12--12--11-11--11-11-11-11--12-12--12-12-12-12---|
G|-0-0--0--0--0--0--0---0---0---0---10-10--10-10-10-10--10-10--10-10-10-10---|
C|-0-0--0--0--0--0--0---0---0---0--------------------------------------------|


D|---------------------------------------------------------------------------|
A|---------------------------------------------------------------------------|
F|-11--11--11--11--11--11--12--12--12--12--12--12--7-7--7-7-7--7-7-7--7-7-7--|
C|-9---9---9---9---9---9---9---9---9---9---9---9---5-5--5-5-5--5-5-5--5-5-5--|
G|-7---7---7---7---7---7---7---7---7---7---7---7---5-5--5-5-5--5-5-5--5-5-5--|
C|-------------------------------------------------5-5--5-5-5--5-5-5--5-5-5--|


D|---------------------------------------------------------------------------|
A|---------------------------------------------------------------------------|
F|-7-7--7--7--7--11-11--11--11--11-------------------------------------------|
C|-7-7--7--7--7--12-12--12--12--12--11-11--11-11-11-11--12-12--12-12-12-12---|
G|-0-0--0--0--0--0--0---0---0---0---10-10--10-10-10-10--10-10--10-10-10-10---|
C|-0-0--0--0--0--0--0---0---0---0--------------------------------------------|


D|---------------------------------------------------------------------------|
A|---------------------------------------------------------------------------|
F|-11-11-11-11-11-11-12-12-12-12-12-12---------------------------------------|
C|-9--9--9--9--9--9--9--9--9--9--9--9--10--10---10--10--10--10-10-10-10--10--|
G|-7--7--7--7--7--7--7--7--7--7--7--7--8---8----8---8---8---8--8--8--8---8---|
C|-------------------------------------8---8----8---8---8---8--8--8--8---8---|


INTRO:
D|---------------------------------------------------------------------------|
A|---------------------------------5h7-5h7p5-----5h7-5h7p5-------------------|
F|-4---6---7---4-7---4---6---2---------------7-7-----------7-7---------------|
C|---0---0---0-----0---0---0---0-0-------------------------------------------|
G|---------------------------------------------------------------------------|
C|---------------------------------------------------------------------------| 
     .   .   .     .   .   .   . .


D|---------------------------------------------------------------------------|
A|---------------------------------5h7-5h7p5-----5h7-5h7p5-------------------|
F|-4---6---7---4-7---4---6---2---------------7-7-----------7-7---------------|
C|---0---0---0-----0---0---0---0-0--------------------------------5~~--------|
G|----------------------------------------------------------------5~~--------|
C|----------------------------------------------------------------5~~--------| 
     .   .   .     .   .   .   . .


BRIDGE:
D|----------3~~--------------3~~---------------3~~---------------2~~~--------|
A|----0----------------0----------------0----------------0-------------------|
F|-------0----------------0----------------0----------------0----------------|
C|-2---------------------------------5---------------------------------------|
G|------------------3--------------------------------------------------------|
C|----------------------------------------------------0----------------------|

"Bring walls down…"
D|----------3~~--------------3~~---------------3~~---------------2~~~--------|
A|----0----------------0----------------0----------------0-------------------|
F|-------0----------------0----------------0----------------0----------------|
C|-2---------------------------------5---------------------------------------|
G|------------------3--------------------------------------------------------|
C|----------------------------------------------------0----------------------|

"Bring walls down…"
D|----------3~----------3~----------3~----------3~----------3~----------3~---|
A|----0-----------0-----------0-----------0-----------0-----------0----------|
F|-------0-----------0-----------0-----------0-----------0-----------0-------|
C|-2-----------2-----------------------------------5-----------5-------------|
G|-------------------------3-----------3-------------------------------------|
C|---------------------------------------------------------------------------|

"Love me again"
D|----------2~-----------2~--------------------------------------------------|
A|----0------------0---------------------------------------------------------|
F|-------0------------0------------------------------------------------------|
C|---------------------------------------------------------------------------|
G|---------------------------------------------------------------------------|
C|-0------------0------------------------------------------------------------|


OUTRO:
D|---------------------------------------------------------------------------|
A|---------------------------------------------------------------------------|
F|---------------------------------------------------------------------------|
C|-5-5--5-5-5--5-5-5--5-5-5--5-5-5--5-5-5--5-5-5-5-5-5-5-5-5-5-5--5-5-5------|
G|-2-2--2-2-2--2-2-2--2-2-2--2-2-2--2-2-2--2-2-2-2-2-2-2-2-2-3-3--3-3-3------|
C|-2-2--2-2-2--2-2-2--2-2-2--2-2-2--2-2-2--2-2-2-2-2-2-2-2-2-----------------|

D|---------------------------------------------------------------------------|
A|---------------------------------------------------------------------------|
F|---------------------------------------------------------------------------|
C|-5-5-5--5-5-5--5-5-5--5-5-5--5-5-5-5-5-5-5-5-5-5-5--5-5-5--5-5-5--5-5-5----|
G|-3-3-3--3-3-3--3-3-3--3-3-3--3-3-3-3-3-3-3-3-3-5-5--5-5-5--5-5-5--5-5-5----|
C|-----------------------------------------------5-5--5-5-5--5-5-5--5-5-5----|

D|---------------------------------------------------------------------------|
A|---------------------------------------------------------------------------|
F|---------------------------------------------------------------------------|
C|-5-5-5--5-5-5--5-5-5-5-5-5-5-5-5-------------------------------------------|
G|-5-5-5--5-5-5--5-5-5-5-5-5-5-5-5-0-0--0-0-0--0-0-0--0-0-0--0-0-0--0-0-0----|
C|-5-5-5--5-5-5--5-5-5-5-5-5-5-5-5-0-0--0-0-0--0-0-0--0-0-0--0-0-0--0-0-0----|

D|---------------------------------------------------------------------------|
A|---------------------------------------------------------------------------|
F|------------2--------------------------------------------------------------|
C|----------0---5-4-0--------------------------------------------------------|
G|-0-0-0---------------------------------------------------------------------|
C|-0-0-0--0------------------------------------------------------------------|
          . .

D|---------------------------------------------------------------------------|
A|---------------------------------------------------------------------------|
F|---------------------------------------------------------------------------|
C|-5-5--5-5-5--5-5-5--5-5-5--5-5-5--5-5-5--5-5-5-5-5-5-5-5-5-5-5--5-5-5------|
G|-2-2--2-2-2--2-2-2--2-2-2--2-2-2--2-2-2--2-2-2-2-2-2-2-2-2-3-3--3-3-3------|
C|-2-2--2-2-2--2-2-2--2-2-2--2-2-2--2-2-2--2-2-2-2-2-2-2-2-2-----------------|

D|---------------------------------------------------------------------------|
A|---------------------------------------------------------------------------|
F|---------------------------------------------------------------------------|
C|-5-5-5--5-5-5--5-5-5--5-5-5--5-5-5-5-5-5-5-5-5-5-5--5-5-5--5-5-5--5-5-5----|
G|-3-3-3--3-3-3--3-3-3--3-3-3--3-3-3-3-3-3-3-3-3-5-5--5-5-5--5-5-5--5-5-5----|
C|-----------------------------------------------5-5--5-5-5--5-5-5--5-5-5----|

D|---------------------------------------------------------------------------|
A|---------------------------------------------------------------------------|
F|---------------------------------------------------------------------------|
C|-5-5-5--5-5-5--5-5-5-5-5-5-5-5-5-------------------------------------------|
G|-5-5-5--5-5-5--5-5-5-5-5-5-5-5-5-0-0--0-0-0--0-0-0--0-0-0--0-0-0--0-0-0----|
C|-5-5-5--5-5-5--5-5-5-5-5-5-5-5-5-0-0--0-0-0--0-0-0--0-0-0--0-0-0--0-0-0----|

D|---------------------------------------------------------------------------|
A|---------------------------------------------------------------------------|
F|------------2--------------------------------------------------------------|
C|----------0---5-4-0--------------------------------------------------------|
G|-0-0-0---------------------------------------------------------------------|
C|-0-0-0--0------------------------------------------------------------------|
          . .

"Bring walls down…"
D|---------------------------------------------------------------------------|
A|---------------------------------------------------------------------------|
F|---------------------------------------------------------------------------|
C|-5~~~------------5~~~------------5~~~------------0~~~----------------------|
G|-2~~~------------3~~~------------5~~~------------0~~~----------------------|
C|-2~~~----------------------------5~~~------------0~~~----------------------|



-=Guitar Two=- (Ryan Key)-----------------------------------------------------


INTRO:
D|---------------------------------------------------------------------------|
A|---------------------------------------------------------------------------|
F|---------------------------------------------------------------------------|
C|---------------------------------------------------------------------------|
G|---------------------------------------------------------------------------|
C|-0~~~~~--------------------------------------------------------------------|


D|---------------------------------------------------------------------------|
A|---------------------------------------------------------------------------|
F|---------------------------------------------------------------------------|
C|-5-5--5-5-5--5-5-5---5-5----9-9--9-0-0--0--9-9--9-0-0--0-------------------|
G|-5-5--5-5-5--5-5-5---5-5----9-9--9-0-0--0--9-9--9-0-0--0-------------------|
C|-5-5--5-5-5--5-5-5---5-5----9-9--9-0-0--0--9-9--9-0-0--0-------------------|

D|---------------------------------------------------------------------------|
A|---------------------------------------------------------------------------|
F|---------------------------------------------------------------------------|
C|-5-5--5-5-5--5-5-5---5-5----9-9--9-0-0--0--9-9--9-0-0--0-------------------|
G|-5-5--5-5-5--5-5-5---5-5----9-9--9-0-0--0--9-9--9-0-0--0-------------------|
C|-5-5--5-5-5--5-5-5---5-5----9-9--9-0-0--0--9-9--9-0-0--0-------------------|

D|---------------------------------------------------------------------------|
A|---------------------------------------------------------------------------|
F|---------------------------------------------------------------------------|
C|-5-5--5-5-5--5-5-5---5-5----9-9--9-0-0--0--9-9--9-0-0--0-------------------|
G|-5-5--5-5-5--5-5-5---5-5----9-9--9-0-0--0--9-9--9-0-0--0-------------------|
C|-5-5--5-5-5--5-5-5---5-5----9-9--9-0-0--0--9-9--9-0-0--0-------------------|

D|---------------------------------------------------------------------------|
A|---------------------------------------------------------------------------|
F|---------------------------------------------------------------------------|
C|-5-5--5-5-5--5-5-5---5-5----9-9--9-0-0--0--9-9--9-0-0--0-------------------|
G|-5-5--5-5-5--5-5-5---5-5----9-9--9-0-0--0--9-9--9-0-0--0-------------------|
C|-5-5--5-5-5--5-5-5---5-5----9-9--9-0-0--0--9-9--9-0-0--0-------------------|


VERSE: Does not play. Pickslide before going into chorus


CHORUS: "Someday everything ends…"
D|---------------------------------------------------------------------------|
A|---------------------------------------------------------------------------|
F|-7-7--7--7--7--11-11--11--11--11-------------------------------------------|
C|-7-7--7--7--7--12-12--12--12--12--11-11--11-11-11-11--12-12--12-12-12-12---|
G|-0-0--0--0--0--0--0---0---0---0---10-10--10-10-10-10--10-10--10-10-10-10---|
C|-0-0--0--0--0--0--0---0---0---0--------------------------------------------|


D|---------------------------------------------------------------------------|
A|---------------------------------------------------------------------------|
F|-11--11--11--11--11--11--12--12--12--12--12--12--7-7--7-7-7--7-7-7--7-7-7--|
C|-9---9---9---9---9---9---9---9---9---9---9---9---5-5--5-5-5--5-5-5--5-5-5--|
G|-7---7---7---7---7---7---7---7---7---7---7---7---5-5--5-5-5--5-5-5--5-5-5--|
C|-------------------------------------------------5-5--5-5-5--5-5-5--5-5-5--|


D|---------------------------------------------------------------------------|
A|---------------------------------------------------------------------------|
F|-7-7--7--7--7--11-11--11--11--11-------------------------------------------|
C|-7-7--7--7--7--12-12--12--12--12--11-11--11-11-11-11--12-12--12-12-12-12---|
G|-0-0--0--0--0--0--0---0---0---0---10-10--10-10-10-10--10-10--10-10-10-10---|
C|-0-0--0--0--0--0--0---0---0---0--------------------------------------------|


D|---------------------------------------------------------------------------|
A|---------------------------------------------------------------------------|
F|-11-11-11-11-11-11-12-12-12-12-12-12---------------------------------------|
C|-9--9--9--9--9--9--9--9--9--9--9--9--10--10---10--10--10--10-10-10-10--10--|
G|-7--7--7--7--7--7--7--7--7--7--7--7--8---8----8---8---8---8--8--8--8---8---|
C|-------------------------------------8---8----8---8---8---8--8--8--8---8---|


INTRO:
D|---------------------------------------------------------------------------|
A|---------------------------------------------------------------------------|
F|---------------------------------------------------------------------------|
C|-5-5--5-5-5--5-5-5---5-5----9-9--9-0-0--0--9-9--9-0-0--0-------------------|
G|-5-5--5-5-5--5-5-5---5-5----9-9--9-0-0--0--9-9--9-0-0--0-------------------|
C|-5-5--5-5-5--5-5-5---5-5----9-9--9-0-0--0--9-9--9-0-0--0-------------------|

D|---------------------------------------------------------------------------|
A|---------------------------------------------------------------------------|
F|---------------------------------------------------------------------------|
C|-5-5--5-5-5--5-5-5---5-5----9-9--9-0-0--0--9-9--9-0-0--0-------------------|
G|-5-5--5-5-5--5-5-5---5-5----9-9--9-0-0--0--9-9--9-0-0--0-------------------|
C|-5-5--5-5-5--5-5-5---5-5----9-9--9-0-0--0--9-9--9-0-0--0-------------------|


VERSE 2: Does not play


CHORUS: "Someday everything ends…"
D|---------------------------------------------------------------------------|
A|---------------------------------------------------------------------------|
F|-7-7--7--7--7--11-11--11--11--11-------------------------------------------|
C|-7-7--7--7--7--12-12--12--12--12--11-11--11-11-11-11--12-12--12-12-12-12---|
G|-0-0--0--0--0--0--0---0---0---0---10-10--10-10-10-10--10-10--10-10-10-10---|
C|-0-0--0--0--0--0--0---0---0---0--------------------------------------------|


D|---------------------------------------------------------------------------|
A|---------------------------------------------------------------------------|
F|-11--11--11--11--11--11--12--12--12--12--12--12--7-7--7-7-7--7-7-7--7-7-7--|
C|-9---9---9---9---9---9---9---9---9---9---9---9---5-5--5-5-5--5-5-5--5-5-5--|
G|-7---7---7---7---7---7---7---7---7---7---7---7---5-5--5-5-5--5-5-5--5-5-5--|
C|-------------------------------------------------5-5--5-5-5--5-5-5--5-5-5--|


D|---------------------------------------------------------------------------|
A|---------------------------------------------------------------------------|
F|-7-7--7--7--7--11-11--11--11--11-------------------------------------------|
C|-7-7--7--7--7--12-12--12--12--12--11-11--11-11-11-11--12-12--12-12-12-12---|
G|-0-0--0--0--0--0--0---0---0---0---10-10--10-10-10-10--10-10--10-10-10-10---|
C|-0-0--0--0--0--0--0---0---0---0--------------------------------------------|


D|---------------------------------------------------------------------------|
A|---------------------------------------------------------------------------|
F|-11-11-11-11-11-11-12-12-12-12-12-12---------------------------------------|
C|-9--9--9--9--9--9--9--9--9--9--9--9--10--10---10--10--10--10-10-10-10--10--|
G|-7--7--7--7--7--7--7--7--7--7--7--7--8---8----8---8---8---8--8--8--8---8---|
C|-------------------------------------8---8----8---8---8---8--8--8--8---8---|


INTRO:
D|---------------------------------------------------------------------------|
A|---------------------------------------------------------------------------|
F|---------------------------------------------------------------------------|
C|-5-5--5-5-5--5-5-5---5-5----9-9--9-0-0--0--9-9--9-0-0--0-------------------|
G|-5-5--5-5-5--5-5-5---5-5----9-9--9-0-0--0--9-9--9-0-0--0-------------------|
C|-5-5--5-5-5--5-5-5---5-5----9-9--9-0-0--0--9-9--9-0-0--0-------------------|

D|---------------------------------------------------------------------------|
A|---------------------------------------------------------------------------|
F|---------------------------------------------------------------------------|
C|-5-5--5-5-5--5-5-5---5-5----9-9--9-0-0--0--9-9--9-0-0--0------5~~----------|
G|-5-5--5-5-5--5-5-5---5-5----9-9--9-0-0--0--9-9--9-0-0--0------5~~----------|
C|-5-5--5-5-5--5-5-5---5-5----9-9--9-0-0--0--9-9--9-0-0--0------5~~----------|


BRIDGE:
D|---------------------------------------------------------------------------|
A|-8-------------------------------------------------------------------------|
F|-x----X16------------------------------------------------------------------|
C|-5-------------------------------------------------------------------------|
G|---------------------------------------------------------------------------|
C|---------------------------------------------------------------------------|

BRIDGE: X3 "Bring walls down…"
D|---------------------------------------------------------------------------|
A|-8-------------------------------------------------------------------------|
F|-x----X48------------------------------------------------------------------|
C|-5-------------5-----------------------------------------------------------|
G|---------------0----X16----------------------------------------------------|
C|---------------0-----------------------------------------------------------|


OUTRO:
D|---------------------------------------------------------------------------|
A|---------------------------------------------------------------------------|
F|---------------------------------------------------------------------------|
C|-5-5--5-5-5--5-5-5--5-5-5--5-5-5--5-5-5--5-5-5-5-5-5-5-5-5-5-5--5-5-5------|
G|-2-2--2-2-2--2-2-2--2-2-2--2-2-2--2-2-2--2-2-2-2-2-2-2-2-2-3-3--3-3-3------|
C|-2-2--2-2-2--2-2-2--2-2-2--2-2-2--2-2-2--2-2-2-2-2-2-2-2-2-----------------|

D|---------------------------------------------------------------------------|
A|---------------------------------------------------------------------------|
F|---------------------------------------------------------------------------|
C|-5-5-5--5-5-5--5-5-5--5-5-5--5-5-5-5-5-5-5-5-5-5-5--5-5-5--5-5-5--5-5-5----|
G|-3-3-3--3-3-3--3-3-3--3-3-3--3-3-3-3-3-3-3-3-3-5-5--5-5-5--5-5-5--5-5-5----|
C|-----------------------------------------------5-5--5-5-5--5-5-5--5-5-5----|

D|---------------------------------------------------------------------------|
A|---------------------------------------------------------------------------|
F|---------------------------------------------------------------------------|
C|-5-5-5--5-5-5--5-5-5-5-5-5-5-5-5-------------------------------------------|
G|-5-5-5--5-5-5--5-5-5-5-5-5-5-5-5-0-0--0-0-0--0-0-0--0-0-0--0-0-0--0-0-0----|
C|-5-5-5--5-5-5--5-5-5-5-5-5-5-5-5-0-0--0-0-0--0-0-0--0-0-0--0-0-0--0-0-0----|

D|---------------------------------------------------------------------------|
A|---------------------------------------------------------------------------|
F|------------2--------------------------------------------------------------|
C|----------0---5-4-0--------------------------------------------------------|
G|-0-0-0---------------------------------------------------------------------|
C|-0-0-0--0------------------------------------------------------------------|
          . .

D|---------------------------------------------------------------------------|
A|---------------------------------------------------------------------------|
F|---------------------------------------------------------------------------|
C|-5-5--5-5-5--5-5-5--5-5-5--5-5-5--5-5-5--5-5-5-5-5-5-5-5-5-5-5--5-5-5------|
G|-2-2--2-2-2--2-2-2--2-2-2--2-2-2--2-2-2--2-2-2-2-2-2-2-2-2-3-3--3-3-3------|
C|-2-2--2-2-2--2-2-2--2-2-2--2-2-2--2-2-2--2-2-2-2-2-2-2-2-2-----------------|

D|---------------------------------------------------------------------------|
A|---------------------------------------------------------------------------|
F|---------------------------------------------------------------------------|
C|-5-5-5--5-5-5--5-5-5--5-5-5--5-5-5-5-5-5-5-5-5-5-5--5-5-5--5-5-5--5-5-5----|
G|-3-3-3--3-3-3--3-3-3--3-3-3--3-3-3-3-3-3-3-3-3-5-5--5-5-5--5-5-5--5-5-5----|
C|-----------------------------------------------5-5--5-5-5--5-5-5--5-5-5----|

D|---------------------------------------------------------------------------|
A|---------------------------------------------------------------------------|
F|---------------------------------------------------------------------------|
C|-5-5-5--5-5-5--5-5-5-5-5-5-5-5-5-------------------------------------------|
G|-5-5-5--5-5-5--5-5-5-5-5-5-5-5-5-0-0--0-0-0--0-0-0--0-0-0--0-0-0--0-0-0----|
C|-5-5-5--5-5-5--5-5-5-5-5-5-5-5-5-0-0--0-0-0--0-0-0--0-0-0--0-0-0--0-0-0----|

D|---------------------------------------------------------------------------|
A|---------------------------------------------------------------------------|
F|------------2--------------------------------------------------------------|
C|----------0---5-4-0--------------------------------------------------------|
G|-0-0-0---------------------------------------------------------------------|
C|-0-0-0--0------------------------------------------------------------------|
          . .

"Bring walls down…"
D|---------------------------------------------------------------------------|
A|---------------------------------------------------------------------------|
F|---------------------------------------------------------------------------|
C|-5~~~------------5~~~------------5~~~------------0~~~----------------------|
G|-2~~~------------3~~~------------5~~~------------0~~~----------------------|
C|-2~~~----------------------------5~~~------------0~~~----------------------|



************************************

| /   slide up
| \   slide down
| h   hammer-on
| p   pull-off
| ~   vibrato
| +   harmonic
| x   Mute note
| b   Bend
| pb  Pre-bend
| br  Bend release
| pbr Pre-bend release
| brb Bend release bend

************************************
Tap to rate this tab
 
# A B C D E F G H I J K L M N O P Q R S T U V W X Y Z