Yellowcard - Empty Apartment tab

Artist: Yellowcard
Track: Empty Apartment
Album: Ocean Avenue

Ok, so this is just the violin part because I noticed that the main solo already was 
tabbed. And the violin part was tabbed too, but I'm just gonna change it from good to 
perfect. No offence.
Why? Because there is a bunch of hammer on's and pull off's in this part that wasen't 
tabbed in the other tabs.

Also, this is my first tab, so yeah.. don't be harsh please. Some ispiration from the 
other tabs but found most of it out myself. This tab is just mainly because of the pull 
off's and hammer on's.
Anyways, Hope you like it :)



E ----------------------------------------------------------------------|
B ------17~-------17h18p17------------17h18p17h18p17h18-20-18h20p18-17--|
G -17-19-----17-19---------19~--17-19-----------------------------------|
D ----------------------------------------------------------------------|
A ----------------------------------------------------------------------|
E ----------------------------------------------------------------------|

E ----------------------------------------------------------------------|
B -18-17h18p17-15h17p15-------------------------------------------------|
G ----------------------17~-------17------------17------------17-19-19~-|
D -----------------------------17----17-17---17----17-17---17-----------|
A ----------------------------------------------------------------------|
E ----------------------------------------------------------------------|
                    [This part is picked extremely fast]
E ----------------17---------------------20202020202020202020-----------|
B -------17-18-20---20202020202020202020--------------------------------|
G -17-19----------------------------------------------------------------|
D ----------------------------------------------------------------------|
A ----------------------------------------------------------------------|
E ----------------------------------------------------------------------|

There you go. Just felt like tabbing this part because I love it. Have a good one ;)
Tap to rate this tab
 
# A B C D E F G H I J K L M N O P Q R S T U V W X Y Z