Song name
# A B C D E F G H I J K L M N O P Q R S T U V W X Y Z

Yellowcard - Keeper tab

-------------------------------------------------------------------
Keeper  Yellowcard
-------------------------------------------------------------------
Tuning: Standard

Intro (0:10)
G|------------------------------------------------------------------------|
D|------------------------------------------------------------------------|
A|-55555555---------------------------5555555--------------------------05-|
E|----------55555555-3333333333333333---------55555555-333333333333333----|

Prechorus (0:47)
G|------------------|
D|------------------|
A|-5555555555555555-|
E|------------------|

Chorus (0:52)
G|----------------------------------------------------|
D|----------------------------------------------------|
A|-5555555555555550----------------0-2222222233333333-|
E|------------------333333333333333-------------------|

Verse (1:21)
G|-----------------------------------------------------------------------|
D|-----------------------------------------------------------------------|
A|-55555555---------------------------55555555-77777777------------------|
E|----------55555555-3333333333333333-------------------3333333333333333-|

Prechorus (1:39)
G|--------------------|
D|-----------4-5h4--4-|
A|-55555555-5-5---5---|
E|--------------------|

Chorus (1:42)
G|----------------------------------------------------|
D|----------------------------------------------------|
A|-5555555555555550----------------0-2222222233333333-|
E|------------------333333333333333-------------------|

Bridge (2:12)
G|-------------------------------------|2x|-----------------------------|
D|-------------------------------------|  |-----------------------------|
A|-55555555----------------------------|  |-----------------------------|
E|----------55555555-77777777-33333333-|  |-00000000-22222222-333333353-|

Chorus (2:40)
G|----------------------------------------------------|
D|----------------------------------------------------|
A|-5555555555555550----------------0-2222222233333333-|
E|------------------333333333333333-------------------|

Outro (3:08)
G|----------------------------------------------------|
D|----------------------------------------------------|
A|-5555555555555550----------------0-2222222233333579-|
E|------------------333333333333333-------------------|

G|---------------------------------------------------------|
D|----------4-5h4-5----------------------------------------|
A|-555555555-5---5-----------------0-222/10-9-333/10-9\7-5-|
E|------------------333333333333333------------------------|

Tap to rate this tab
# A B C D E F G H I J K L M N O P Q R S T U V W X Y Z