Song name
# A B C D E F G H I J K L M N O P Q R S T U V W X Y Z

Yellowcard - For You And Your Denial tab

this is really the tab for the ending lead guitar riff.  this is 100% correct unlike 
everyone elses crap.  (AND im  pretty that this is exactly where ryan mendez palys it with 
the frets and all)

You're going to have to figure out the palm mutes yourself...too lazy to write it. but 
the notes are correct if you disagree then you're wrong. watch them play it live


------------9-9-9---------------------------------------------|
------------------------10-10------------10-10----------10-10-|
---------12---------------------------------------------------|
-----9---------------------------12-12------------11-11-------|
--12----------------------------------------------------------|
--------------------------------------------------------------|

-----------------------------------------------------------|
-------------------10------------------------10------------|
-------------11-9-11------11-11--------11-9-11-------------|
--12-12------------------------12-12-------------11-11-12--|
-----------------------------------------------------------|
-----------------------------------------------------------|


not so fast

here's the tab for the other guitar playing simultaneously ...its on the album version. 
(not sure if its all correct but its very close. you be the judge)


-------------------------------------------------------------------------------------------------|
------------10-10-10--7-7---7-7----------------------------------7--------------------7-------7--|
------------------------------------7-7---9-9---6-6------7-6-7----7-7------7-6-7-----9-9---------|
--------7-----------------------------------------------7-7----------------9-7-------------------|
-7--9--------------------------------------------------------------------------------------------|
-------------------------------------------------------------------------------------------------|
Tap to rate this tab
 
# A B C D E F G H I J K L M N O P Q R S T U V W X Y Z