Song name
# A B C D E F G H I J K L M N O P Q R S T U V W X Y Z

Yellowcard - Always Summer tab

----------------------------
 Always Summer ~ Yellowcard
----------------------------

Tabbed by: Russcool
(I know, pretty lame name)

Part: Intro

Tuning: Drop D

  Guitar 1   (Let Ring)
E|-----0-----0-----0-----0--|-----0-----0-----0-----0--|
B|--9-----9-----0-----7-----|--7-----0-----7-----0-----|
G|--------------------------|--------------------------|
D|--------------------------|--------------------------|
A|--------------------------|--------------------------|
D|--------------------------|--------------------------|

E|-----0-----0-----0-----0--|-----0-----0-----0-----0--|
B|--5-----5-----5-----4-----|--4-----4-----4-----4-----|
G|--------------------------|--------------------------|
D|--------------------------|--------------------------|
A|--------------------------|--------------------------|
D|--------------------------|--------------------------|


THEN


  Guitar 1   (Let Ring)
E|-----0-----0-----0-----0--|-----0-----0-----0-----0--|
B|--9-----9-----0-----7-----|--7-----0-----7-----0-----|
G|--------------------------|--------------------------|
D|--------------------------|--------------------------|
A|--------------------------|--------------------------|
D|--------------------------|--------------------------|

E|-----0-----0-----0-----0--|-----0-----0-----0-----0--|
B|--5-----5-----5-----4-----|--4-----4-----4-----4-----|
G|--------------------------|--------------------------|
D|--------------------------|--------------------------|
A|--------------------------|--------------------------|
D|--------------------------|--------------------------|

E|-----0-----0-----0-----0--|-----0-----0-----0-----0--|
B|--9-----9-----0-----7-----|--7-----0-----7-----9-----|
G|--------------------------|--------------------------|
D|--------------------------|--------------------------|
A|--------------------------|--------------------------|
D|--------------------------|--------------------------|

E|-----0-----0-----0-----0--|-----0-----0-----0-----0--|
B|--5-----5-----5-----4-----|--4-----4-----4-----4-----|
G|--------------------------|--------------------------|
D|--------------------------|--------------------------|
A|--------------------------|--------------------------|
D|--------------------------|--------------------------|


  Guitar 2
E|--------------------------|--------------------------|
B|--------------------------|--------------------------|
G|--------------------------|--------------------------|
D|--2--2-----2--2-----------|--------------------------|
A|--0--0-----0--0-----2--2--|--2--2-----2--2-----2--2--|
D|--------------------2--2--|--2--2-----2--2-----2--2--|

E|--------------------------|--------------------------|
B|--------------------------|--------------------------|
G|--------------------------|--------------------------|
D|--6--6-----6--6-----4--4--|--4--4-----4--4-----4--4--|
A|--4--4-----4--4-----2--2--|--2--2-----2--2-----2--2--|
D|--------------------------|--------------------------|

E|--------------------------|--------------------------|
B|--------------------------|--------------------------|
G|--------------------------|--------------------------|
D|--2--2-----2--2-----------|--------------------------|
A|--0--0-----0--0-----2--2--|--2--2-----2--2-----2--2--|
D|--------------------2--2--|--2--2-----2--2-----2--2--|

E|--------------------------|--------------------------|
B|--------------------------|--------------------------|
G|--------------------------|--------------------------|
D|--6--6-----6--6-----4--4--|--4--4-----4--4-----4--4--|
A|--4--4-----4--4-----2--2--|--2--2-----2--2-----2--2--|
D|--------------------------|--------------------------|
Tap to rate this tab
 
# A B C D E F G H I J K L M N O P Q R S T U V W X Y Z