Guitaretab - guitar tabs
Song name
# A B C D E F G H I J K L M N O P Q R S T U V W X Y Z

Yellowcard - Rock Star Land tab

-----------------------------------------------------------------------------
			     ROCKSTAR LAND - Yellowcard
-----------------------------------------------------------------------------

Tabbed by: Matt
Email: htfkick@yahoo.com

Tuning: Drop D

Key:
v - strum down
^ - strum up
~ - let ring
. - palm-mute

Not all strumming is defined.

Intro (wah-wah effect is used) x2
e|--------------------------------------------------|
B|--------------------------------------------------|
G|--------------------------------------------------|
D|--7--7--7--7--5--5--5--5--3--3--3--3--3--3--3--3--|
A|--7--7--7--7--5--5--5--5--3--3--3--3--3--3--3--3--|
D|--7--7--7--7--5--5--5--5--3--3--3--3--3--3--3--3--|

e|------------------------------------------------------|
B|------------------------------------------------------|
G|------------------------------------------------------|
D|--7--7--7--7--10--10--10--10--5--5--5--5--5--5--5--5--|
A|--7--7--7--7--10--10--10--10--5--5--5--5--5--5--5--5--|
D|--7--7--7--7--10--10--10--10--5--5--5--5--5--5--5--5--|

Intro cont.
e|--------------------------------------------------------------|
B|--------------------------------------------------------------|
G|--------------------------------------------------------------|
D|--7~--5~--3~--------7~--10~--5-5-5-5-5-5-5-5-5-5-5-5-5-5-5-5--|
A|--7~--5~--3~--8--9--7~--10~--5-5-5-5-5-5-5-5-5-5-5-5-5-5-5-5--|
D|--7~--5~--3~--------7~--10~--5-5-5-5-5-5-5-5-5-5-5-5-5-5-5-5--|
pm                             . . . . . . . . . . . . . . . .
[ Tab from: http://www.guitaretab.com/y/yellowcard/31695.html ]
e|---------------------------------------------------------------------------
B|---------------------------------------------------------------------------
G|--------9--------7-------4---4---4---------9----------10--------7---7---7--
D|--10-10---10-9-9---9-5-5---5---5---5-10-10---10-12-12----12-9-9---9---9---9
A|---------------------------------------------------------------------------
D|---------------------------------------------------------------------------
pm ..........................................................................


e|-----------------------------------------------------------------|
B|-----------------------------------------------------------------|
G|--------9--------7-------4---4---4---------9----------10-----7~--|
D|--10-10---10-9-9---9-5-5---5---5---5-10-10---10-12-12----12--9~--|
A|-----------------------------------------------------------------|
D|-----------------------------------------------------------------|
pm  .........................................................

Verse  x2
e|-------------------------------------------------------------------|
B|-------------------------------------------------------------------|
G|-------------------------------------------------------------------|
D|--7-7-7-7-7-7-7-7-3-3-3-3-3-3-3-3-2-2-2-2-2-2-2-2-5-5-5-5-5-5-5-5--|
A|--7-7-7-7-7-7-7-7-3-3-3-3-3-3-3-3-2-2-2-2-2-2-2-2-5-5-5-5-5-5-5-5--|
D|--7-7-7-7-7-7-7-7-3-3-3-3-3-3-3-3-2-2-2-2-2-2-2-2-5-5-5-5-5-5-5-5--|

Verse cont.
e|---------------------------------------------------------------------------
B|---------------------------------------------------------------------------
G|---------------------------------------------------------------------------
D|--7-7-7-7-7-7-7-7-3-3-3-3-3-3-3-3-2-2-2-2-2-2-2-2-2-2-2-2-5-5-5-5-5-5-5-5--
A|--7-7-7-7-7-7-7-7-3-3-3-3-3-3-3-3-2-2-2-2-2-2-2-2-2-2-2-2-5-5-5-5-5-5-5-5--
D|--7-7-7-7-7-7-7-7-3-3-3-3-3-3-3-3-2-2-2-2-2-2-2-2-2-2-2-2-5-5-5-5-5-5-5-5--
pm                                  . . . . . . . . . . . .
strumming                           v v v ^ v v v v v ^ v v

e|--------------------------------------------------|
B|--------------------------------------------------|
G|--------------------------------------------------|
D|--7--7--7--7--7--7--7--7--3--3--3--3--3--3--3--3--|
A|--7--7--7--7--7--7--7--7--3--3--3--3--3--3--3--3--|
D|--7--7--7--7--7--7--7--7--3--3--3--3--3--3--3--3--|

That's all I have so far. E-mail me with corrections htfkicks@yahoo.com
Related for Rock Star Land tab
Advertisement will be closed in 10 seconds