Song name
# A B C D E F G H I J K L M N O P Q R S T U V W X Y Z

Yellowcard - Life Of Leaving Home tab

Drop D Tuning
Intro/Post Chorus Rhythm
e---------------------|
b---------------------|
g---------------------|
d-4--4-4-0-4--0-0-0-0-|
a-4--4-4-0-4--0-0-0-0-|
d-4--4-4-0-4--0-0-0-0-|

Viola
e------------------------7----------------------------7------------------------|
b-10-9-7----101010101010---9~--10-9-7----101010101010---9~----7-9-10-9-7---7~--|
g--------9----------------------------9---------------------9------------9-----|
d------------------------------------------------------------------------------|
a------------------------------------------------------------------------------|
d------------------------------------------------------------------------------|

Lead Guitar
e-9---------------------------9-----------------------------------9--------------|
b---12-9---101010101010-9-------12-9---101010101010-9-----9-10-12---12-10-9-10~--|
g--------9----------------9~---------9----------------9~-------------------------|
d--------------------------------------------------------------------------------|
a--------------------------------------------------------------------------------|
d--------------------------------------------------------------------------------|

Verse
Rhythm
e------------------------------- ---------------------|
b------------------------------- T -------------------|
g---------------------2222--- 2x h -------------------|
d-4444-2222-0000-4444-2222-2222- e -44-4444--22-2222--|
a-4444-2222-0000-4444-0000-2222- n -44-4444--22-2222--|
d-4444-2222-0000-4444------2222-   -44-4444--22-2222--|

Lead Guitar
e-------------------------------------------|
b-10101010101010101010101010101010-99999999-|
g--x-x-x-x-x-x-x-x-x-x-x-x-x-x-x-x-xxxxxxxx-| 2x
d--7-7-7-7-7-7-7-7-7-7-7-7-7-7-7-7-66666666-|
a-------------------------------------------|
d-------------------------------------------|

Pre-Chorus
e------------------|
b------------------|
g------------------|
d-44-4444--22-2222-|
a-44-4444--22-2222-|
d-44-4444--22-2222-|

Chorus
e-------------------------------------|
b-------------------------------------|
g-------------------------------------| 2x
d-00000000-77777777-44444444-22222222-|
a-00000000-77777777-44444444-22222222-|
d-00000000-77777777-44444444-22222222-|

e-------------------------------------|
b-------------------------------------|
g-------------------66666666-77777777-|
d-00000000-77777777-66666666-77777777-|
a-00000000-77777777-44444444-55555555-|
d-00000000-77777777-------------------|

e-------------------------------------|
b-------------------------------------|
g-------------------------------------|
d-00000000-77777777-44444444-22222222-|
a-00000000-77777777-44444444-22222222-|
d-00000000-77777777-44444444-22222222-|

Lead (Hard to hear. Not perfect, but it'll get you there)
e----10----10------------9----9-----------------------------------|
b-10----10----101010--10---10--101010--10-12-10-12--10101010-9999-|
g----------------------------------------------------x-x-x-x-xxxx-|
d----------------------------------------------------7-7-7-7-6666-|
a-----------------------------------------------------------------|
d-----------------------------------------------------------------|

e----10----10------------9----9-----------12----12---------------|
b-10----10----101010--10---10--101010--10----10----10101010-9999-|
g---------------------------------------------------x-x-x-x-xxxx-|
d---------------------------------------------------7-7-7-7-6666-|
a----------------------------------------------------------------|
d----------------------------------------------------------------|

e-----------------------------------------------------|
b-77777777-1010101010101010-99999999-1010101010101010-|
g-xxxxxxxx--x-x-x-x-x-x-x-x-xxxxxxxx--x-x-x-x-x-x-x-x-|
d-44444444--7-7-7-7-7-7-7-7-66666666--7-7-7-7-7-7-7-7-|
a-----------------------------------------------------|
d-----------------------------------------------------|

e----10----10------------9----9-----------12----12---------------|
b-10----10----101010--10---10--101010--10----10----10101010-9999-|
g---------------------------------------------------x-x-x-x-xxxx-|
d---------------------------------------------------7-7-7-7-6666-|
a----------------------------------------------------------------|
d----------------------------------------------------------------|

Post-Chorus
Verse 2
Rhythm is same

Lead
e-------------------------------------------------------------------------------------|
b-101010101010101010101010101010101010101010101010-1212121212121212-14141414-12121212-|
g--x-x-x-x-x-x-x-x-x-x-x-x-x-x-x-x-x-x-x-x-x-x-x-x--x-x-x-x-x-x-x-x--x-x-x-x--x-x-x-x-|
d--7-7-7-7-7-7-7-7-7-7-7-7-7-7-7-7-7-7-7-7-7-7-7-7--9-9-9-9-9-9-9-9-11111111--9-9-9-9-|
a-------------------------------------------------------------------------------------|
d-------------------------------------------------------------------------------------|

e-------------------------------------------|
b-10101010101010101010101010101010-99999999-|
g--x-x-x-x-x-x-x-x-x-x-x-x-x-x-x-x-xxxxxxxx-|
d--7-7-7-7-7-7-7-7-7-7-7-7-7-7-7-7-66666666-|
a-------------------------------------------|
d-------------------------------------------|

Pre-Chorus
Chorus
Pre-Chorus

Solo
Rhythm
e----------------------------------------------------|
b----------------------------------------------------|
g----------------------------------------------------| 2x
d-4444444444444444-0000000000000000-2222222222222222-|
a-4444444444444444-0000000000000000-2222222222222222-|
d-4444444444444444-0000000000000000-2222222222222222-|

Viola
e---------------------------------------------------------------------7--------------|
b-10-9-7---7-------------------7-------------------------7-----10-9-9---9-9-10-9-7---|
g--------9----9--6--9--9-7-6------9--6----6-----6---9------9-9---------------------9-|
d----------------------------9---------9----7-9-------6-6----------------------------|
a------------------------------------------------------------------------------------|
d------------------------------------------------------------------------------------|

e----------------------------------------------------------------------------------|
b---7-9-10-9-7---7-----------------------------------------------------10-9-7---7~-|
g-9------------9-------6~--9-6-6-7~--6~------9-----9-----9-----6h7p6-9--------9----|
d------------------7-9-------------------7~----6-6---6-6---6-6---------------------|
a----------------------------------------------------------------------------------|
d----------------------------------------------------------------------------------|

Guitar
e-9-------------------------------------------------------------------------------|
b---12-9---10--9-----9--9------9-10--9-----9---------9-12-9-9-10-9-9--------9-----|
g--------9--------9-------9-11----------9----------9-----------------11-9-9---9-9-|
d---------------------------------------------9-12--------------------------------|
a---------------------------------------------------------------------------------|
d---------------------------------------------------------------------------------|

e-9---------------------------------------------10-9---------------------------------9-----10~--|
b---12-9---10~------10---9---7---7-10---9---7-7------9-12-----10-----9-----9h10p9-10---12-9-10--|
g--------9--------9----9---9---9------9---9---------------9-9----9-9---9-9----------------------|
d-----------------------------------------------------------------------------------------------|
a-----------------------------------------------------------------------------------------------|
d-----------------------------------------------------------------------------------------------|

Bridge
e-------------------------------------------------------------------------|
b-------------------------------------------------------------------------|
g-4444444444444444-7777777777777777---------------------------------------|
d-4444444444444444-7777777777777777-4444444444444444-2222222222222222-0~--|
a-2222222222222222-5555555555555555-4444444444444444-2222222222222222-0~--|
d-----------------------------------4444444444444444-2222222222222222-0~--|
Tap to rate this tab
# A B C D E F G H I J K L M N O P Q R S T U V W X Y Z