Song name
# A B C D E F G H I J K L M N O P Q R S T U V W X Y Z

Yellowcard - Awakening tab

------------------------
 Awakening ~ Yellowcard
------------------------
Southern Air      (2012)

Tabbed by: Russcool
(I know, pretty lame name)

Instrument: Guitar

Tempo: 190

Key: E

Tuning: E Standard



CHORUS

   Guitar 1 (Clean)
E |----------------------------|----------------------------|
B |----------------------------|----------------------------|
G |--9--9--9>-9--9--9--9>-9----|--9--9--9>-9--9--9--9>-9----|
D |--x--x--x>-x--x--x--x>-x----|--x--x--x>-x--x--x--x>-x----|
A |--7--7--7>-7--7--7--7>-7----|--7--7--7>-7--7--7--7>-7----|
E |--0--0--0>-0--0--0--0>-0----|--0--0--0>-0--0--0--0>-0----|

----------------------------|----------------------------|
----------------------------|----------------------------|
--9--9--9>-9--9--9--9>-9----|--9--9--9>-9--9--9--9>-9----|
--x--x--x>-x--x--x--x>-x----|--x--x--x>-x--x--x--x>-x----|
--6--6--6>-6--6--6--6>-6----|--6--6--6>-6--6--6--6>-6----|
--0--0--0>-0--0--0--0>-0----|--0--0--0>-0--0--0--0>-0----|

----------------------------|----------------------------|
----------------------------|----------------------------|
--6--6--6>-6--6--6--6>-6----|--6--6--6>-6--6--6--6>-6----|
--x--x--x>-x--x--x--x>-x----|--x--x--x>-x--x--x--x>-x----|
--4--4--4>-4--4--4--4>-4----|--4--4--4>-4--4--4--4>-4----|
--0--0--0>-0--0--0--0>-0----|--0--0--0>-0--0--0--0>-0----|

----------------------------|----------------------------|
----------------------------|----------------------------|
--9--9--9>-9--9--9--9>-9----|--9--9--9>-9--9--9--9>-9----|
--x--x--x>-x--x--x--x>-x----|--x--x--x>-x--x--x--x>-x----|
--6--6--6>-6--6--6--6>-6----|--6--6--6>-6--6--6--6>-6----|
--0--0--0>-0--0--0--0>-0----|--0--0--0>-0--0--0--0>-0----|


   Guitar 1 repeats while Guitar 2 plays this:

   Guitar 2 (Clean)
E |-----------7L---|--7----|-----------7L---|--7----|-----------7L---|--7----|
B |----------------|-------|----------------|-------|----------------|-------|
G |-----9----------|-------|-----9----------|-------|-----9----------|-------|
D |----------------|-------|----------------|-------|----------------|-------|
A |--7-----7-------|-------|--6-----6-------|-------|----------------|-------|
E |----------------|-------|----------------|-------|--9-----9-------|-------|

-----------7L---|--7----|
----------------|-------|
-----9----------|-------|
----------------|-------|
--6-----6-------|-------|
----------------|-------|


Guitar 1
----------------------------|----------------------------|
----------------------------|----------------------------|
--9--9--9>-9--9--9--9>-9----|--9--9--9>-9--9--9--9>-9----|
--x--x--x>-x--x--x--x>-x----|--x--x--x>-x--x--x--x>-x----|
--7--7--7>-7--7--7--7>-7----|--7--7--7>-7--7--7--7>-7----|
--0--0--0>-0--0--0--0>-0----|--0--0--0>-0--0--0--0>-0----|

----------------------------|-------|
----------------------------|-------|
--11-11-11>11-11-11-11>11---|-------|
--x--x--x>-x--x--x--x>-x----|-------|
--9--9--9>-9--9--9--9>-9----|-------|
--0--0--0>-0--0--0--0>-0----|-------|

Guitar 2
-----------7L---|--7----|--------7-------|-------|
----------------|-------|----------------|-------|
-----9----------|-------|-----9-----9----|-------|
----------------|-------|----------------|-------|
--7-----7-------|-------|--9-------------|-------|
----------------|-------|----------------|-------|



INTERLUDE

   Guitar 3 (Distortion)
E |----------------------------|----------------------------|
B |----------------------------|----------------------------|
G |--9--9--9--9-----9-----9----|--9--9--9--9-----9-----9----|
D |--x--x--x--x-----x-----x----|--x--x--x--x-----x-----x----|
A |--7--7--7--7-----7-----7----|--7--7--7--7-----7-----7----|
E |--0--0--0--0-----0-----0----|--0--0--0--0-----0-----0----|

----------------------------|----------------------------|
----------------------------|----------------------------|
--9--9--9--9-----9-----9----|--9--9--9--9-----9-----9----|
--x--x--x--x-----x-----x----|--x--x--x--x-----x-----x----|
--6--6--6--6-----7-----7----|--6--6--6--6-----7-----7----|
--0--0--0--0-----0-----0----|--0--0--0--0-----0-----0----|

----------------------------|----------------------------|
----------------------------|----------------------------|
--6--6--6--6-----9-----9----|--6--6--6--6-----9-----9----|
--x--x--x--x-----x-----x----|--x--x--x--x-----x-----x----|
--4--4--4--4-----7-----7----|--4--4--4--4-----7-----7----|
--0--0--0--0-----0-----0----|--0--0--0--0-----0-----0----|

----------------------------|----------------------------|
----------------------------|----------------------------|
--9--9--9--9-----9-----9----|--9--9--9--9-----9-----9----|
--x--x--x--x-----x-----x----|--x--x--x--x-----x-----x----|
--6--6--6--6-----7-----7----|--6--6--6--6-----7-----7----|
--0--0--0--0-----0-----0----|--0--0--0--0-----0-----0----|

   Guitar 3 repeats while Guitar 1 plays this:

Guitar 1
----------------|----------------|--7-----7-------|
--9-----9-------|--7-----7-------|----------------|
-----9-----9----|-----9-----9----|-----9-----9----|
----------------|----------------|----------------|
----------------|----------------|----------------|
----------------|----------------|----------------|

----------------|--11----11------|--7-----7-------|--11----11------|
--7-----7-------|----------------|----------------|----------------|
-----9-----9----|-----9-----9----|-----9-----9----|-----9-----9----|
----------------|----------------|----------------|----------------|
----------------|----------------|----------------|----------------|
----------------|----------------|----------------|----------------|

--7-----7-------|
----------------|
-----9-----9----|
----------------|
----------------|
----------------|



VERSE

Guitar 3
----------------------------|----------------------------|
----------------------------|----------------------------|
----------------------------|----------------------------|
----------------------------|----------------------------|
--7--7--7>-7--7--7--7>-7----|--7--7--7>-7--7--7--7>-7----|
--0--0--0>-0--0--0--0>-0----|--0--0--0>-0--0--0--0>-0----|

----------------------------|----------------------------|
----------------------------|----------------------------|
----------------------------|----------------------------|
----------------------------|----------------------------|
--7--7--7>-7--7--7--7>-7----|--7--7--7>-7--6--6--6>-6----|
--0--0--0>-0--0--0--0>-0----|--0--0--0>-0--0--0--0>-0----|

----------------------------|----------------------------|
----------------------------|----------------------------|
----------------------------|----------------------------|
----------------------------|----------------------------|
--4--4--4>-4--4--4--4>-4----|--4--4--4>-4--4--4--4>-4----|
----------------------------|----------------------------|

----------------------------|----------------------------|
----------------------------|----------------------------|
----------------------------|----------------------------|
----------------------------|----------------------------|
--4--4--4>-4--4--4--4>-4----|----------------------------|
----------------------------|--2--2--2--2--4--4--4--4----|

   Guitar 4 (Distortion)
E |----------------------------|----------------------------|
B |----------------------------|----------------------------|
G |--9--9--9--9--9--9--9--9----|--9--9--9--9--9--9--9--9----|
D |--x--x--x--x--x--x--x--x----|--x--x--x--x--x--x--x--x----|
A |--7--7--7--7--7--7--7--7----|--7--7--7--7--7--7--7--7----|
E |----------------------------|----------------------------|

----------------------------|----------------------------|
----------------------------|----------------------------|
--9--9--9--9--9--9--9--9----|--9--9--9--9--9--9--9--9----|
--x--x--x--x--x--x--x--x----|--x--x--x--x--x--x--x--x----|
--7--7--7--7--7--7--7--7----|--7--7--7--7--6--6--6--6----|
----------------------------|----------------------------|

----------------------------|----------------------------|
----------------------------|----------------------------|
--9--9--9--9--9--9--9--9----|--9--9--9--9--9--9--9--9----|
--x--x--x--x--x--x--x--x----|--x--x--x--x--x--x--x--x----|
--7--7--7--7--7--7--7--7----|--7--7--7--7--7--7--7--7----|
----------------------------|----------------------------|

----------------------------|----------------------------|
----------------------------|----------------------------|
--9--9--9--9--9--9--9--9----|--9--9--9--9--11-11-11-11---|
--x--x--x--x--x--x--x--x----|--x--x--x--x--x--x--x--x----|
--7--7--7--7--7--7--7--7----|--7--7--7--7--9--9--9--9----|
----------------------------|----------------------------|

   Guitar 3 repeats while Guitar 4 plays this:

Guitar 4
----------------------------|----------------------------|
----------------------------|----------------------------|
--13-13-13-13-13-13-13-13---|--13-13-13-13-13-13-13-13---|
--x--x--x--x--x--x--x--x----|--x--x--x--x--x--x--x--x----|
--11-11-11-11-11-11-11-11---|--11-11-11-11-11-11-11-11---|
----------------------------|----------------------------|

----------------------------|----------------------------|
----------------------------|----------------------------|
--13-13-13-13-13-13-13-13---|--13-13-13-13-9--9--9--9----|
--x--x--x--x--x--x--x--x----|--x--x--x--x--x--x--x--x----|
--11-11-11-11-11-11-11-11---|--11-11-11-11-6--6--6--6----|
----------------------------|----------------------------|

----------------------------|----------------------------|
----------------------------|----------------------------|
--9--9--9--9--9--9--9--9----|--9--9--9--9--9--9--9--9----|
--x--x--x--x--x--x--x--x----|--x--x--x--x--x--x--x--x----|
--7--7--7--7--7--7--7--7----|--7--7--7--7--7--7--7--7----|
----------------------------|----------------------------|

----------------------------|----------------------------|
----------------------------|----------------------------|
--9--9--9--9--9--9--9--9----|--9--9--9--9--9--9--9--9----|
--x--x--x--x--x--x--x--x----|--x--x--x--x--x--x--x--x----|
--7--7--7--7--7--7--7--7----|--7--7--7--7--7--7--7--7----|
----------------------------|----------------------------|



PRE-CHORUS

Guitar 3
-----------0L---|--0----|
-----------0L---|--0----|
-----------1L---|--1----|
----------------|-------|
-----2L-2-------|-------|
--0-------------|-------|

-----------0L---|--0----|
-----------0L---|--0----|
-----------1L---|--1----|
----------------|-------|
-----2L-2-------|-------|
--0-------------|-------|

Guitar 4
----------------|
----------------|
----------------|
----------------|
--2s-4L-4L-4L---|
----------------|

-------|----------------|----------|
-------|----------------|----------|
-------|----------------|----------|
-------|----------------|----------|
--4----|--6s-7L-7L-7L---|--7--12s--|
-------|----------------|-----12s--|



CHORUS

Guitar 3
----------------------------|
----------------------------|
----------------------------|
----------------------------|
--7--7--7--7--7--7--7--7----|
--0--0--0--0--0--0--0--0----|

----------------------------|----------------------------|
----------------------------|----------------------------|
----------------------------|----------------------------|
----------------------------|----------------------------|
--7--7--7--7--7--7--7--7----|--6--6--6--6--6--6--6--6----|
--0--0--0--0--0--0--0--0----|--0--0--0--0--0--0--0--0----|

----------------------------|----------------------------|
----------------------------|----------------------------|
----------------------------|----------------------------|
----------------------------|----------------------------|
--6--6--6--6--6--6--6--6----|--4--4--4--4--4--4--4--4----|
--0--0--0--0--0--0--0--0----|--0--0--0--0--0--0--0--0----|

----------------------------|----------------------------|
----------------------------|----------------------------|
----------------------------|----------------------------|
----------------------------|----------------------------|
--4--4--4--4--4--4--4--4----|--6--6--6--6--6--6--6--6----|
--0--0--0--0--0--0--0--0----|--0--0--0--0--0--0--0--0----|

----------------------------|----------------------------|
----------------------------|----------------------------|
----------------------------|----------------------------|
----------------------------|----------------------------|
--6--6--6--6--6--6--6--6----|--7--7--7--7--7--7--7--7----|
--0--0--0--0--0--0--0--0----|--0--0--0--0--0--0--0--0----|

----------------------------|----------------------------|
----------------------------|----------------------------|
----------------------------|----------------------------|
----------------------------|----------------------------|
--7--7--7--7--7--7--7--7----|--6--6--6--6--6--6--6--6----|
--0--0--0--0--0--0--0--0----|--0--0--0--0--0--0--0--0----|

----------------------------|----------------------------|
----------------------------|----------------------------|
----------------------------|----------------------------|
----------------------------|----------------------------|
--6--6--6--6--6--6--6--6----|--4--4--4--4--4--4--4--4----|
--0--0--0--0--0--0--0--0----|--0--0--0--0--0--0--0--0----|

----------------------------|----------------------------|
----------------------------|----------------------------|
----------------------------|----------------------------|
----------------------------|----------------------------|
--4--4--4--4--4--4--4--4----|--6--6--6--6--6--6--6--6----|
--0--0--0--0--0--0--0--0----|--0--0--0--0--0--0--0--0----|

----------------------------|----------------------------|
----------------------------|----------------------------|
----------------------------|----------------------------|
----------------------------|----------------------------|
--6--6--6--6--6--6--6--6----|--7--7--7--7--7--7--7--7----|
--0--0--0--0--0--0--0--0----|--0--0--0--0--0--0--0--0----|

----------------------------|----------------------------|-------|
----------------------------|----------------------------|-------|
----------------------------|----------------------------|-------|
----------------------------|----------------------------|-------|
--7--7--7--7--7--7--7--7----|--9--9--9--9--9--9--9--9----|-------|
--0--0--0--0--0--0--0--0----|--0--0--0--0--0--0--0--0----|-------|

Guitar 4
----------------------------|
----------------------------|
--9--9--9--9--9--9--9--9----|
--x--x--x--x--x--x--x--x----|
--7--7--7--7--7--7--7--7----|
----------------------------|

----------------------------|----------------------------|
----------------------------|----------------------------|
--9--9--9--9--9--9--9--9----|--9--9--9--9--9--9--9--9----|
--x--x--x--x--x--x--x--x----|--x--x--x--x--x--x--x--x----|
--7--7--7--7--7--7--7--7----|--7--7--7--7--7--7--7--7----|
----------------------------|----------------------------|

----------------------------|----------------------------|
----------------------------|----------------------------|
--11-11-11-11-11-11-11-11---|--9--9--9--9--9--9--9--9----|
--x--x--x--x--x--x--x--x----|--x--x--x--x--x--x--x--x----|
--9--9--9--9--9--9--9--9----|--7--7--7--7--7--7--7--7----|
----------------------------|----------------------------|

----------------------------|----------------------------|
----------------------------|----------------------------|
--9--9--9--9--6--6--6--6----|--9--9--9--9--9--9--9--9----|
--x--x--x--x--x--x--x--x----|--x--x--x--x--x--x--x--x----|
--7--7--7--7--4--4--4--4----|--7--7--7--7--7--7--7--7----|
----------------------------|----------------------------|

----------------------------|----------------------------|
----------------------------|----------------------------|
--11-11-11-11-11-11-11-11---|--13-13-13-13-13-13-13-13---|
--x--x--x--x--x--x--x--x----|--x--x--x--x--x--x--x--x----|
--9--9--9--9--9--9--9--9----|--11-11-11-11-11-11-11-11---|
----------------------------|----------------------------|

----------------------------|----------------------------|
----------------------------|----------------------------|
--13-13-13-13-13-13-13-13---|--11-11-11-11-11-11-11-11---|
--x--x--x--x--x--x--x--x----|--x--x--x--x--x--x--x--x----|
--11-11-11-11-11-11-11-11---|--9--9--9--9--9--9--9--9----|
----------------------------|----------------------------|

----------------------------|----------------------------|
----------------------------|----------------------------|
--11-11-11-11-11-11-11-11---|--9--9--9--9--9--9--9--9----|
--x--x--x--x--x--x--x--x----|--x--x--x--x--x--x--x--x----|
--9--9--9--9--9--9--9--9----|--7--7--7--7--7--7--7--7----|
----------------------------|----------------------------|

----------------------------|----------------------------|
----------------------------|----------------------------|
--9--9--9--9--9--9--9--9----|--9--9--9--9--9--9--9--9----|
--x--x--x--x--x--x--x--x----|--x--x--x--x--x--x--x--x----|
--7--7--7--7--7--7--7--7----|--7--7--7--7--7--7--7--7----|
----------------------------|----------------------------|

----------------------------|--0--0--0--0--0--0--0--0----|
----------------------------|--5--5--5--5--5--5--5--5----|
--9--9--9--9--9--9--9--9----|----------------------------|
--x--x--x--x--x--x--x--x----|----------------------------|
--7--7--7--7--7--7--7--7----|----------------------------|
----------------------------|----------------------------|

--0--0--0--0--0--0--0--0----|--0--0--0--0--0--0--0--0----|-------|
--5--5--5--5--5--5--5--5----|--7--7--7--7--7--7--7--7----|-------|
----------------------------|----------------------------|-------|
----------------------------|----------------------------|-------|
----------------------------|----------------------------|-------|
----------------------------|----------------------------|-------|



INTERLUDE

Guitar 3 
----------------------------|----------------------------|
----------------------------|----------------------------|
--9--9--9--9-----9-----9----|--9--9--9--9-----9-----9----|
--x--x--x--x-----x-----x----|--x--x--x--x-----x-----x----|
--7--7--7--7-----7-----7----|--7--7--7--7-----7-----7----|
--0--0--0--0-----0-----0----|--0--0--0--0-----0-----0----|

----------------------------|----------------------------|
----------------------------|----------------------------|
--9--9--9--9-----9-----9----|--9--9--9--9-----9-----9----|
--x--x--x--x-----x-----x----|--x--x--x--x-----x-----x----|
--6--6--6--6-----7-----7----|--6--6--6--6-----7-----7----|
--0--0--0--0-----0-----0----|--0--0--0--0-----0-----0----|

----------------------------|----------------------------|
----------------------------|----------------------------|
--6--6--6--6-----9-----9----|--6--6--6--6-----9-----9----|
--x--x--x--x-----x-----x----|--x--x--x--x-----x-----x----|
--4--4--4--4-----7-----7----|--4--4--4--4-----7-----7----|
--0--0--0--0-----0-----0----|--0--0--0--0-----0-----0----|

----------------------------|----------------------------|
----------------------------|----------------------------|
--9--9--9--9-----9-----9----|--9--9--9--9-----9-----9----|
--x--x--x--x-----x-----x----|--x--x--x--x-----x-----x----|
--6--6--6--6-----7-----7----|--6--6--6--6-----7-----7----|
--0--0--0--0-----0-----0----|--0--0--0--0-----0-----0----|

Guitar 1
----------------|----------------|--7-----7-------|
--9-----9-------|--7-----7-------|----------------|
-----9-----9----|-----9-----9----|-----9-----9----|
----------------|----------------|----------------|
----------------|----------------|----------------|
----------------|----------------|----------------|

----------------|--11----11------|--7-----7-------|--11----11------|
--7-----7-------|----------------|----------------|----------------|
-----9-----9----|-----9-----9----|-----9-----9----|-----9-----9----|
----------------|----------------|----------------|----------------|
----------------|----------------|----------------|----------------|
----------------|----------------|----------------|----------------|

--7-----7-------|
----------------|
-----9-----9----|
----------------|
----------------|
----------------|



VERSE
 
Guitar 3
----------------------------|----------------------------|
----------------------------|----------------------------|
----------------------------|----------------------------|
----------------------------|----------------------------|
----------------------------|----------------------------|
--0M-0M----0M-0M-0M----0M---|--0M-0M----0M-0M-0M----0M---|

----------------------------|----------------------------|
----------------------------|----------------------------|
----------------------------|----------------------------|
----------------------------|----------------------------|
----------------------------|--------------6--6--6--6----|
--0M-0M----0M-0M-0M----0M---|--0M-0M----0M-0--0--0--0----|

----------------------------|----------------------------|
----------------------------|----------------------------|
----------------------------|----------------------------|
----------------------------|----------------------------|
--4M-4M----4M-4M-4M----4M---|--4M-4M----4M-4M-4M----4M---|
----------------------------|----------------------------|

----------------------------|----------------------------|
----------------------------|----------------------------|
----------------------------|----------------------------|
----------------------------|----------------------------|
--4M-4M----4M-4M-4M----4M---|----------------------------|
----------------------------|--2--2--2--2--4--4--4--4----|

Guitar 4
----------------------------|----------------------------|
----------------------------|----------------------------|
----------------------------|----------------------------|
----------------------------|----------------------------|
--7M-7M----7M-7M-7M----7M---|--7M-7M----7M-7M-7M----7M---|
----------------------------|----------------------------|

----------------------------|----------------------------|
----------------------------|----------------------------|
----------------------------|--------------9--9--9--9----|
----------------------------|--------------x--x--x--x----|
--7M-7M----7M-7M-7M----7M---|--7M-7M----7M-6--6--6--6----|
----------------------------|----------------------------|

----------------------------|----------------------------|
----------------------------|----------------------------|
----------------------------|----------------------------|
----------------------------|----------------------------|
--7M-7M----7M-7M-7M----7M---|--7M-7M----7M-7M-7M----7M---|
----------------------------|----------------------------|

----------------------------|----------------------------|
----------------------------|----------------------------|
----------------------------|--9--9--9--9--11-11-11-11---|
----------------------------|--x--x--x--x--x--x--x--x----|
--7M-7M----7M-7M-7M----7M---|--7--7--7--7--9--9--9--9----|
----------------------------|----------------------------|

   Guitar 3 repeats while Guitar 4 plays this:

Guitar 4
----------------------------|----------------------------|
----------------------------|----------------------------|
----------------------------|----------------------------|
----------------------------|----------------------------|
--11M11M---11M11M11M---11M--|--11M11M---11M11M11M---11M--|
----------------------------|----------------------------|

----------------------------|----------------------------|
----------------------------|----------------------------|
----------------------------|--------------9--9--9--9----|
----------------------------|--------------x--x--x--x----|
--9M-9M----9M-9M-9M----9M---|--9M-9M----9M-6--6--6--6----|
----------------------------|----------------------------|

----------------------------|----------------------------|
----------------------------|----------------------------|
----------------------------|----------------------------|
----------------------------|----------------------------|
--7M-7M----7M-7M-7M----7M---|--7M-7M----7M-7M-7M----7M---|
----------------------------|----------------------------|

----------------------------|----------------------------|
----------------------------|----------------------------|
----------------------------|--9--9--9--9--11-11-11-11---|
----------------------------|--x--x--x--x--x--x--x--x----|
--7M-7M----7M-7M-7M----7M---|--7--7--7--7--9--9--9--9----|
----------------------------|----------------------------|



PRE-CHORUS
(Same as first Pre-Chorus)



CHORUS

Guitar 3
----------------------------|
----------------------------|
----------------------------|
----------------------------|
--7--7--7--7--7--7--7--7----|
--0--0--0--0--0--0--0--0----|

----------------------------|----------------------------|
----------------------------|----------------------------|
----------------------------|----------------------------|
----------------------------|----------------------------|
--7--7--7--7--7--7--7--7----|--6--6--6--6--6--6--6--6----|
--0--0--0--0--0--0--0--0----|--0--0--0--0--0--0--0--0----|

----------------------------|----------------------------|
----------------------------|----------------------------|
----------------------------|----------------------------|
----------------------------|----------------------------|
--6--6--6--6--6--6--6--6----|--4--4--4--4--4--4--4--4----|
--0--0--0--0--0--0--0--0----|--0--0--0--0--0--0--0--0----|

----------------------------|----------------------------|
----------------------------|----------------------------|
----------------------------|----------------------------|
----------------------------|----------------------------|
--4--4--4--4--4--4--4--4----|--6--6--6--6--6--6--6--6----|
--0--0--0--0--0--0--0--0----|--0--0--0--0--0--0--0--0----|

----------------------------|----------------------------|
----------------------------|----------------------------|
----------------------------|----------------------------|
----------------------------|----------------------------|
--6--6--6--6--6--6--6--6----|--7--7--7--7--7--7--7--7----|
--0--0--0--0--0--0--0--0----|--0--0--0--0--0--0--0--0----|

----------------------------|----------------------------|
----------------------------|----------------------------|
----------------------------|----------------------------|
----------------------------|----------------------------|
--7--7--7--7--7--7--7--7----|--6--6--6--6--6--6--6--6----|
--0--0--0--0--0--0--0--0----|--0--0--0--0--0--0--0--0----|

----------------------------|----------------------------|
----------------------------|----------------------------|
----------------------------|----------------------------|
----------------------------|----------------------------|
--6--6--6--6--6--6--6--6----|--4--4--4--4--4--4--4--4----|
--0--0--0--0--0--0--0--0----|--0--0--0--0--0--0--0--0----|

----------------------------|----------------------------|
----------------------------|----------------------------|
----------------------------|----------------------------|
----------------------------|----------------------------|
--4--4--4--4--4--4--4--4----|--6--6--6--6--6--6--6--6----|
--0--0--0--0--0--0--0--0----|--0--0--0--0--0--0--0--0----|

----------------------------|----------------------------|
----------------------------|----------------------------|
----------------------------|----------------------------|
----------------------------|----------------------------|
--6--6--6--6--6--6--6--6----|--7--7--7--7--7--7--7--7----|
--0--0--0--0--0--0--0--0----|--0--0--0--0--0--0--0--0----|

----------------------------|----------------------------|
----------------------------|----------------------------|
----------------------------|----------------------------|
----------------------------|----------------------------|
--7--7--7--7--7--7--7--7----|--9--9--9--9--9--9--9--9----|
--0--0--0--0--0--0--0--0----|--0--0--0--0--0--0--0--0----|

----------------------------|----------------------------|
----------------------------|----------------------------|
----------------------------|----------------------------|
----------------------------|----------------------------|
--9--9--9--9--9--9--9--9----|--11-11-11-11-11-11-11-11---|
--0--0--0--0--0--0--0--0----|--0--0--0--0--0--0--0--0----|

----------------------------|----------------------------|
----------------------------|----------------------------|
----------------------------|----------------------------|
----------------------------|----------------------------|
--11-11-11-11-11-11-11-11---|--14-14-14-14-14-14-14-14---|
--0--0--0--0--0--0--0--0----|--0--0--0--0--0--0--0--0----|

----------------------------|----------------------------|
----------------------------|----------------------------|
----------------------------|----------------------------|
----------------------------|----------------------------|
--9--9--9--9--9--9--9--9----|--7--7--7--7--7--7--7--7----|
--0--0--0--0--0--0--0--0----|--0--0--0--0--0--0--0--0----|

----------------------------|----------------------------|
----------------------------|----------------------------|
----------------------------|----------------------------|
----------------------------|----------------------------|
--7--7--7--7--7--7--7--7----|--9--9--9--9--9--9--9--9----|
--0--0--0--0--0--0--0--0----|--0--0--0--0--0--0--0--0----|

----------------------------|
----------------------------|
----------------------------|
----------------------------|
--9--9--9--9--9--9--9--9----|
--0--0--0--0--0--0--0--0----|

Guitar 4
----------------------------|
----------------------------|
--9--9--9--9--9--9--9--9----|
--x--x--x--x--x--x--x--x----|
--7--7--7--7--7--7--7--7----|
----------------------------|

----------------------------|----------------------------|
----------------------------|----------------------------|
--9--9--9--9--9--9--9--9----|--9--9--9--9--9--9--9--9----|
--x--x--x--x--x--x--x--x----|--x--x--x--x--x--x--x--x----|
--7--7--7--7--7--7--7--7----|--7--7--7--7--7--7--7--7----|
----------------------------|----------------------------|

----------------------------|----------------------------|
----------------------------|----------------------------|
--11-11-11-11-11-11-11-11---|--9--9--9--9--9--9--9--9----|
--x--x--x--x--x--x--x--x----|--x--x--x--x--x--x--x--x----|
--9--9--9--9--9--9--9--9----|--7--7--7--7--7--7--7--7----|
----------------------------|----------------------------|

----------------------------|----------------------------|
----------------------------|----------------------------|
--9--9--9--9--6--6--6--6----|--9--9--9--9--9--9--9--9----|
--x--x--x--x--x--x--x--x----|--x--x--x--x--x--x--x--x----|
--7--7--7--7--4--4--4--4----|--7--7--7--7--7--7--7--7----|
----------------------------|----------------------------|

----------------------------|----------------------------|
----------------------------|----------------------------|
--11-11-11-11-11-11-11-11---|--13-13-13-13-13-13-13-13---|
--x--x--x--x--x--x--x--x----|--x--x--x--x--x--x--x--x----|
--9--9--9--9--9--9--9--9----|--11-11-11-11-11-11-11-11---|
----------------------------|----------------------------|

----------------------------|----------------------------|
----------------------------|----------------------------|
--13-13-13-13-13-13-13-13---|--11-11-11-11-11-11-11-11---|
--x--x--x--x--x--x--x--x----|--x--x--x--x--x--x--x--x----|
--11-11-11-11-11-11-11-11---|--9--9--9--9--9--9--9--9----|
----------------------------|----------------------------|

----------------------------|----------------------------|
----------------------------|----------------------------|
--11-11-11-11-11-11-11-11---|--9--9--9--9--9--9--9--9----|
--x--x--x--x--x--x--x--x----|--x--x--x--x--x--x--x--x----|
--9--9--9--9--9--9--9--9----|--7--7--7--7--7--7--7--7----|
----------------------------|----------------------------|

----------------------------|----------------------------|
----------------------------|----------------------------|
--9--9--9--9--9--9--9--9----|--9--9--9--9--9--9--9--9----|
--x--x--x--x--x--x--x--x----|--x--x--x--x--x--x--x--x----|
--7--7--7--7--7--7--7--7----|--7--7--7--7--7--7--7--7----|
----------------------------|----------------------------|

----------------------------|--0--0--0--0--0--0--0--0----|
----------------------------|--5--5--5--5--5--5--5--5----|
--9--9--9--9--9--9--9--9----|----------------------------|
--x--x--x--x--x--x--x--x----|----------------------------|
--7--7--7--7--7--7--7--7----|----------------------------|
----------------------------|----------------------------|

--0--0--0--0--0--0--0--0----|--0--0--0--0--0--0--0--0----|
--5--5--5--5--5--5--5--5----|--7--7--7--7--7--7--7--7----|
----------------------------|----------------------------|
----------------------------|----------------------------|
----------------------------|----------------------------|
----------------------------|----------------------------|

--0--0--0--0--0--0--0--0----|--0--0--0--0--0--0--0--0----|
--7--7--7--7--7--7--7--7----|--9--9--9--9--9--9--9--9----|
----------------------------|----------------------------|
----------------------------|----------------------------|
----------------------------|----------------------------|
----------------------------|----------------------------|

--0--0--0--0--0--0--0--0----|--0--0--0--0--0--0--0--0----|
--9--9--9--9--9--9--9--9----|--12-12-12-12-12-12-12-12---|
----------------------------|----------------------------|
----------------------------|----------------------------|
----------------------------|----------------------------|
----------------------------|----------------------------|

--0--0--0--0--0--0--0--0----|--0--0--0--0--0--0--0--0----|
--12-12-12-12-12-12-12-12---|--5--5--5--5--5--5--5--5----|
----------------------------|----------------------------|
----------------------------|----------------------------|
----------------------------|----------------------------|
----------------------------|----------------------------|

--0--0--0--0--0--0--0--0----|--0--0--0--0--0--0--0--0----|
--5--5--5--5--5--5--5--5----|--7--7--7--7--7--7--7--7----|
----------------------------|----------------------------|
----------------------------|----------------------------|
----------------------------|----------------------------|
----------------------------|----------------------------|

--0--0--0--0--0--0--0--0----|
--7--7--7--7--7--7--7--7----|
----------------------------|
----------------------------|
----------------------------|
----------------------------|



BRIDGE

Guitar 1
-----------0L-0-------------|-------|-----------0L-0-------------|
--------------------0L------|--0----|--------------------0-------|
----------------------------|-------|----------------------------|
----------------------------|-------|----------------------------|
--7-------------------------|-------|--7-------------------------|
----------------------------|-------|----------------------------|

-----------0L-0-------------|-----------0L-0-------------|-------|
--------------------0-------|--------------------0L------|--0----|
----------------------------|----------------------------|-------|
----------------------------|----------------------------|-------|
--6-------------------------|--4-------------------------|-------|
----------------------------|----------------------------|-------|

-----------0L-0-------------|-----------0L-0-------------|
----------------------------|--------------------0-------|
----------------------------|----------------------------|
----------------------------|----------------------------|
--4-----------------4s------|--6-------------------------|
----------------------------|----------------------------|

(Repeat)

Then...

Guitar 3
-------|-------|-------|----------------------------|-------|----------------|
--5L---|--5~---|--5~---|--4h-------5L-5h----4-------|--2L---|--2~------------|
-------|-------|-------|----------------------------|-------|----------------|
-------|-------|-------|----------------------------|-------|----------------|
-------|-------|-------|----------------------------|-------|-----------2h---|
-------|-------|-------|----------------------------|-------|----------------|


----------------|----------------|
----------------|-----------4----|
----------------|----------------|
----------------|----------------|
--0--------2h---|--4~------------|
----------------|----------------|

(Repeat)

Guitar 4
----------------------------|----------------------------|
----------------------------|----------------------------|
--9--9--9--9--9--9--9--9----|--9--9--9--9--9--9--9--9----|
--x--x--x--x--x--x--x--x----|--x--x--x--x--x--x--x--x----|
--7--7--7--7--7--7--7--7----|--7--7--7--7--7--7--7--7----|
--0--0--0--0--0--0--0--0----|--0--0--0--0--0--0--0--0----|

----------------------------|----------------------------|
----------------------------|----------------------------|
--9--9--9--9--9--9--9--9----|--9--9--9--9--9--9--9--9----|
--x--x--x--x--x--x--x--x----|--x--x--x--x--x--x--x--x----|
--7--7--7--7--7--7--7--7----|--7--7--7--7--7--7--7--7----|
--0--0--0--0--0--0--0--0----|--0--0--0--0--0--0--0--0----|

----------------------------|----------------------------|
----------------------------|----------------------------|
--9--9--9--9--9--9--9--9----|--6--6--6--6--6--6--6--6----|
--x--x--x--x--x--x--x--x----|--x--x--x--x--x--x--x--x----|
--6--6--6--6--6--6--6--6----|--4--4--4--4--4--4--4--4----|
--0--0--0--0--0--0--0--0----|--0--0--0--0--0--0--0--0----|

----------------------------|----------------------------|
----------------------------|----------------------------|
--6--6--6--6--6--6--6--6----|--6--6--6--6--6--6--6--6----|
--x--x--x--x--x--x--x--x----|--x--x--x--x--x--x--x--x----|
--4--4--4--4--4--4--4--4----|--4--4--4--4--4--4--4--4----|
--0--0--0--0--0--0--0--0----|--0--0--0--0--0--0--0--0----|

----------------------------|
----------------------------|
--9--9--9--9--9--9--9--9----|
--x--x--x--x--x--x--x--x----|
--6--6--6--6--6--6--6--6----|
--0--0--0--0--0--0--0--0----|

(Repeat)



CHORUS

Guitar 3
----------------|----------------|----------------|
----------------|----------------|----------------|
----------------|----------------|----------------|
----------------|----------------|----------------|
--7--7--7--7----|--7--7--7--7----|--6--6--6--6----|
--0--0--0--0----|--0--0--0--0----|--0--0--0--0----|

----------------|----------------|----------------|----------------------------|
----------------|----------------|----------------|----------------------------|
----------------|----------------|----------------|----------------------------|
----------------|----------------|----------------|----------------------------|
--6--6--6--6----|--4--4--4--4----|--4--4--4--4----|--6--6--6--6--6--6--6--6----|
--0--0--0--0----|--0--0--0--0----|--0--0--0--0----|--0--0--0--0--0--0--0--0----|

----------------------------|----------------------------|
----------------------------|----------------------------|
----------------------------|----------------------------|
----------------------------|----------------------------|
--6--6--6--6--6--6--6--6----|--7--7--7--7--7--7--7--7----|
--0--0--0--0--0--0--0--0----|--0--0--0--0--0--0--0--0----|

----------------------------|----------------------------|
----------------------------|----------------------------|
----------------------------|----------------------------|
----------------------------|----------------------------|
--7--7--7--7--7--7--7--7----|--6--6--6--6--6--6--6--6----|
--0--0--0--0--0--0--0--0----|--0--0--0--0--0--0--0--0----|

----------------------------|----------------------------|
----------------------------|----------------------------|
----------------------------|----------------------------|
----------------------------|----------------------------|
--6--6--6--6--6--6--6--6----|--4--4--4--4--4--4--4--4----|
--0--0--0--0--0--0--0--0----|--0--0--0--0--0--0--0--0----|

----------------------------|----------------------------|
----------------------------|----------------------------|
----------------------------|----------------------------|
----------------------------|----------------------------|
--4--4--4--4--4--4--4--4----|--6--6--6--6--6--6--6--6----|
--0--0--0--0--0--0--0--0----|--0--0--0--0--0--0--0--0----|

----------------------------|----------------------------|
----------------------------|----------------------------|
----------------------------|----------------------------|
----------------------------|----------------------------|
--6--6--6--6--6--6--6--6----|--7--7--7--7--7--7--7--7----|
--0--0--0--0--0--0--0--0----|--0--0--0--0--0--0--0--0----|

----------------------------|----------------------------|
----------------------------|----------------------------|
----------------------------|----------------------------|
----------------------------|----------------------------|
--7--7--7--7--7--7--7--7----|--9--9--9--9--9--9--9--9----|
--0--0--0--0--0--0--0--0----|--0--0--0--0--0--0--0--0----|

----------------------------|----------------------------|
----------------------------|----------------------------|
----------------------------|----------------------------|
----------------------------|----------------------------|
--9--9--9--9--9--9--9--9----|--11-11-11-11-11-11-11-11---|
--0--0--0--0--0--0--0--0----|--0--0--0--0--0--0--0--0----|

----------------------------|----------------------------|
----------------------------|----------------------------|
----------------------------|----------------------------|
----------------------------|----------------------------|
--11-11-11-11-11-11-11-11---|--14-14-14-14-14-14-14-14---|
--0--0--0--0--0--0--0--0----|--0--0--0--0--0--0--0--0----|

----------------------------|----------------------------|
----------------------------|----------------------------|
----------------------------|----------------------------|
----------------------------|----------------------------|
--9--9--9--9--9--9--9--9----|--7--7--7--7--7--7--7--7----|
--0--0--0--0--0--0--0--0----|--0--0--0--0--0--0--0--0----|

----------------------------|----------------------------|-------|
----------------------------|----------------------------|-------|
----------------------------|----------------------------|-------|
----------------------------|----------------------------|-------|
--7--7--7--7--7--7--7--7----|--9--9--9--9--9--9--9--9----|-------|
--0--0--0--0--0--0--0--0----|--0--0--0--0--0--0--0--0----|-------|

Guitar 4
----------------|----------------|----------------|
----------------|----------------|----------------|
--9--9--9--9----|--9--9--9--9----|--9--9--9--9----|
--x--x--x--x----|--x--x--x--x----|--x--x--x--x----|
--7--7--7--7----|--7--7--7--7----|--7--7--7--7----|
----------------|----------------|----------------|

----------------|----------------|----------------|----------------------------|
----------------|----------------|----------------|----------------------------|
--11-11-11-11---|--9--9--9--9----|--9--9--6--6----|--9--9--9--9--9--9--9--9----|
--x--x--x--x----|--x--x--x--x----|--x--x--x--x----|--x--x--x--x--x--x--x--x----|
--9--9--9--9----|--7--7--7--7----|--7--7--4--4----|--7--7--7--7--7--7--7--7----|
----------------|----------------|----------------|----------------------------|

----------------------------|----------------------------|
----------------------------|----------------------------|
--11-11-11-11-11-11-11-11---|--13-13-13-13-13-13-13-13---|
--x--x--x--x--x--x--x--x----|--x--x--x--x--x--x--x--x----|
--9--9--9--9--9--9--9--9----|--11-11-11-11-11-11-11-11---|
----------------------------|----------------------------|

----------------------------|----------------------------|
----------------------------|----------------------------|
--13-13-13-13-13-13-13-13---|--11-11-11-11-11-11-11-11---|
--x--x--x--x--x--x--x--x----|--x--x--x--x--x--x--x--x----|
--11-11-11-11-11-11-11-11---|--9--9--9--9--9--9--9--9----|
----------------------------|----------------------------|

----------------------------|----------------------------|
----------------------------|----------------------------|
--11-11-11-11-11-11-11-11---|--9--9--9--9--9--9--9--9----|
--x--x--x--x--x--x--x--x----|--x--x--x--x--x--x--x--x----|
--9--9--9--9--9--9--9--9----|--7--7--7--7--7--7--7--7----|
----------------------------|----------------------------|

----------------------------|----------------------------|
----------------------------|----------------------------|
--9--9--9--9--9--9--9--9----|--9--9--9--9--9--9--9--9----|
--x--x--x--x--x--x--x--x----|--x--x--x--x--x--x--x--x----|
--7--7--7--7--7--7--7--7----|--7--7--7--7--7--7--7--7----|
----------------------------|----------------------------|

----------------------------|--0--0--0--0--0--0--0--0----|
----------------------------|--5--5--5--5--5--5--5--5----|
--9--9--9--9--9--9--9--9----|----------------------------|
--x--x--x--x--x--x--x--x----|----------------------------|
--7--7--7--7--7--7--7--7----|----------------------------|
----------------------------|----------------------------|

--0--0--0--0--0--0--0--0----|--0--0--0--0--0--0--0--0----|
--5--5--5--5--5--5--5--5----|--7--7--7--7--7--7--7--7----|
----------------------------|----------------------------|
----------------------------|----------------------------|
----------------------------|----------------------------|
----------------------------|----------------------------|

--0--0--0--0--0--0--0--0----|--0--0--0--0--0--0--0--0----|
--7--7--7--7--7--7--7--7----|--9--9--9--9--9--9--9--9----|
----------------------------|----------------------------|
----------------------------|----------------------------|
----------------------------|----------------------------|
----------------------------|----------------------------|

--0--0--0--0--0--0--0--0----|--0--0--0--0--0--0--0--0----|
--9--9--9--9--9--9--9--9----|--12-12-12-12-12-12-12-12---|
----------------------------|----------------------------|
----------------------------|----------------------------|
----------------------------|----------------------------|
----------------------------|----------------------------|

--0--0--0--0--0--0--0--0----|--0--0--0--0--0--0--0--0----|
--12-12-12-12-12-12-12-12---|--5--5--5--5--5--5--5--5----|
----------------------------|----------------------------|
----------------------------|----------------------------|
----------------------------|----------------------------|
----------------------------|----------------------------|

--0--0--0--0--0--0--0--0----|--0--0--0--0--0--0--0--0----|-------|
--5--5--5--5--5--5--5--5----|--7--7--7--7--7--7--7--7----|-------|
----------------------------|----------------------------|-------|
----------------------------|----------------------------|-------|
----------------------------|----------------------------|-------|
----------------------------|----------------------------|-------|



OUTRO

Guitar 3 
----------------------------|----------------------------|
----------------------------|----------------------------|
--9--9--9--9-----9-----9----|--9--9--9--9-----9-----9----|
--x--x--x--x-----x-----x----|--x--x--x--x-----x-----x----|
--7--7--7--7-----7-----7----|--7--7--7--7-----7-----7----|
--0--0--0--0-----0-----0----|--0--0--0--0-----0-----0----|

----------------------------|----------------------------|
----------------------------|----------------------------|
--9--9--9--9-----9-----9----|--9--9--9--9-----9-----9----|
--x--x--x--x-----x-----x----|--x--x--x--x-----x-----x----|
--6--6--6--6-----7-----7----|--6--6--6--6-----7-----7----|
--0--0--0--0-----0-----0----|--0--0--0--0-----0-----0----|

----------------------------|----------------------------|
----------------------------|----------------------------|
--6--6--6--6-----9-----9----|--6--6--6--6-----9-----9----|
--x--x--x--x-----x-----x----|--x--x--x--x-----x-----x----|
--4--4--4--4-----7-----7----|--4--4--4--4-----7-----7----|
--0--0--0--0-----0-----0----|--0--0--0--0-----0-----0----|

----------------------------|----------------------------|
----------------------------|----------------------------|
--9--9--9--9-----9-----9----|--9--9--9--9-----9-----9----|
--x--x--x--x-----x-----x----|--x--x--x--x-----x-----x----|
--6--6--6--6-----7-----7----|--6--6--6--6-----7-----7----|
--0--0--0--0-----0-----0----|--0--0--0--0-----0-----0----|

(Repeat)

Guitar 1
----------------|----------------|--7-----7-------|
--9-----9-------|--7-----7-------|----------------|
-----9-----9----|-----9-----9----|-----9-----9----|
----------------|----------------|----------------|
----------------|----------------|----------------|
----------------|----------------|----------------|

----------------|--11----11------|--7-----7-------|--11----11------|
--7-----7-------|----------------|----------------|----------------|
-----9-----9----|-----9-----9----|-----9-----9----|-----9-----9----|
----------------|----------------|----------------|----------------|
----------------|----------------|----------------|----------------|
----------------|----------------|----------------|----------------|

--7-----7-------|
----------------|
-----9-----9----|
----------------|
----------------|
----------------|

(Repeat)





Key:
> = Accentuated Note
L = Tied Note
x = Dead Note
M = Palm Mute
s = Slide
v = Vibrato
h = Hammer-On

Tap to rate this tab
 
# A B C D E F G H I J K L M N O P Q R S T U V W X Y Z