Song name
# A B C D E F G H I J K L M N O P Q R S T U V W X Y Z

Yellowcard - Always Summer tab





-------------------------------------------------------------------------------
                             Always Summer Solo - Yellowcard
-------------------------------------------------------------------------------
Tabbed by:Zach




Tuning:

e------------------------------------------------------------------|
b----------9-------------------------------------------------------|
g----9h11---11p9--11p9p8--9p8--------------------------------------|
d--9-------------------------9-------------------------------------|
a------------------------------------------------------------------|
e------------------------------------------------------------------|

e------------------------------------------------------------------|
b--------10-9h10p9---10-9h10p9-------------------------------------|
g----9h11----------9-----------9-----------------------------------|
d--9---------------------------------------------------------------|
a------------------------------------------------------------------|
e------------------------------------------------------------------|

e----------------------------------------------------------------------|
b-------12-10-9-10p9h10----9h10p9---------(TREMELO PICK THIS)----------|
g----11-----------------9---------9---------999888---------------------|
d--9-------------------------------------------11111111-999------------|
a---------------------------------------11's not 1's^^-----------------|
e----------------------------------------------------------------------|


Tough part. play fast and it will sound right.

e-----------------------------------------------------------------------|
b--11p10p11p10---11p10p11p10-11p10p11p10-----11p10p11p10----------------|
g--------------9--------------------------9-----------------------------|
d-----------------------------------------------------------------------|
a-----------------------------------------------------------------------|
e-----------------------------------------------------------------------|

e-------------------------------------------------------------------------------|
b--12p10p9h10p9h10p9------------------------------------------------------------|
g---------------------11p9h11p9h11p9p8--9p8h9p8h9p8-----------------------------|
d---------------------------------------------------9h11p9h11p9-----------------|
a-------------------------------------------------------------------------------|
e-------------------------------------------------------------------------------|


e---------------------12p11p9-11p9-----------------------------------------------|
b----------------9-----------------12--9h10p9h10p9h10p9--------------------------|
g------9--11p9-----9-9----------------------------------11-9---------------------|
d--9-9--9-----9------------------------------------------------------------------|
a--------------------------------------------------------------------------------|
e--------------------------------------------------------------------------------|



************************************

| /   slide up
| \   slide down
| h   hammer-on
| p   pull-off
| ~   vibrato
| +   harmonic
| x   Mute note
| b   Bend
| pb  Pre-bend
| br  Bend release
| pbr Pre-bend release
| brb Bend release bend

************************************
Tap to rate this tab
# A B C D E F G H I J K L M N O P Q R S T U V W X Y Z