Song name
# A B C D E F G H I J K L M N O P Q R S T U V W X Y Z

Yellowcard - Ten tab

Yellowcard
Southern Air
Ten

Tabbed by: Broday Walker

Standard Tuning

Intro (with Ryan counting)
|---------------------------------------------------------------|
|-----3-----3-----3-----3-----3-----3-----3-----3---------------|
|-----0-----0-----0-----0-----0-----0-----0-----0---------------|
|---------------------------------------------------------------|
|--3-----3-----3-----3-----3-----3-----3-----3------------------|
|---------------------------------------------------------------|


Intro (continued)
|--------------------------------------------------------------------------------|
|-------3-------3--------3---------3--------3--------3--------3-------3----------|
|-------0-------0--------0---------0--------0--------0--------0-------0----------|
|--------------------------------------------------------------------------------|
|--3--------------------------2--------------------------------------------------|
|-----------2--------3------------------0--------0--------0--------0-------------|


Verse
|--------------------------------------------------------------------------------|
|-------3-------3--------3---------3--------3--------3--------3-------3----------|
|-------0-------0--------0---------0--------0--------0--------0-------0----------|
|--------------------------------------------------------------------------------|
|--3--------------------------2--------------------------------------------------|
|-----------2--------3------------------0--------0--------0--------0-------------|

"And we would never be the same again..."
|------------------------------------------------------------------------------|
|-----3----3----3----3-----3----3----3----3----3----3----3----3----------------|
|-----0----0----0----0-----0----0----0----0----0----0----0----0----------------|
|------------------------------------------------------------------------------|
|--5----5----5----5-----2----2-----3----3----3----3----3----3------------------|
|------------------------------------------------------------------------------|

Chorus
|-----0-------0-------0-----|
|-----3-------3-------1-----|
|-----0-------0-------0-----|
|-----2-------0-------2-----|
|-----2-------2-------3-----|
|-----0-------3-------0-----|

"And you would have all the love..."
|-----0-------0-------0-----|
|-----3-------3-------1-----|
|-----0-------2-------0-----|
|-----2-------0-------2-----|
|-----2-------0-------3-----|
|-----0-------2-------0-----|

Bridge
|-----0-0-0-0-----0-0-0-0-----3-3-3-3-----|
|-----1-1-1-1-----3-3-3-3-----3-3-3-3-----|
|-----0-0-0-0-----2-2-2-2-----0-0-0-0-----|
|-----2-2-2-2-----0-0-0-0-----2-2-2-2-----|
|-----3-3-3-3-----0-0-0-0-----3-3-3-3-----|
|-----0-0-0-0-----2-2-2-2-----0-0-0-0-----|


This tab isn't perfect, but it's a start. Thanks for checking it out.
Tap to rate this tab
 
# A B C D E F G H I J K L M N O P Q R S T U V W X Y Z