Song name
# A B C D E F G H I J K L M N O P Q R S T U V W X Y Z

Yellowcard - Sleep In The Snow tab

-------------------------------------------------------
Yellowcard - Sleep in the Snow
-------------------------------------------------------


===GUITAR ONE===

INTRO (x4)
e|-5-5--5-5-------------------------------|
B|-x-x--x-x--7-7--7-7--7-7--7-7--5-5--5-5-|
G|-7-7--7-7--7-7--7-7--7-7--7-7--7-7--7-7-|
D|-5-5--5-5--5-5--5-5--7-7--7-7--7-7--7-7-|
A|----------------------------------------|
D|----------------------------------------|


VERSE (x2)
e|-----------------------------------------|
B|-----------------------------------------|
G|-----------------------------------------|
D|-----------------------------------------|
A|-------9-9-9-----7-7---------------------|
D|-9-9-9-------5-5-----0-0-0-0-0-0-0-0-0-0-|

e|-----------------------------------------|
B|-----------------------------------------|
G|-----------------------------------------|
D|-------7-7-7-----------------------------|
A|-----------------7/9-------9-9-----10----|
D|-9-9-9-------5-5-----0-0-0-----0-0-------|


PRE-CHORUS (x2)
e|--------------------------|
B|--------------------------|
G|--------------------------|
D|-5-5-5-5-5-5--7-7-7-7-7-7-|
A|-5-5-5-5-5-5--7-7-7-7-7-7-|
D|-5-5-5-5-5-5--7-7-7-7-7-7-|


CHORUS (x2)
e|---------------------------------------------------------------------|
B|---------------------------------------------------------------------|
G|------------------6-6-6-6--4-4-4-4-----------------------------------|
D|-0-0-0-0-0-0-0-0--7-7-7-7--4-4-4-4--5-5-5-5-5-5-5-5--7-7-7-7-7-7-7-7-|
A|-0-0-0-0-0-0-0-0--4-4-4-4--2-2-2-2--5-5-5-5-5-5-5-5--7-7-7-7-7-7-7-7-|
D|-0-0-0-0-0-0-0-0--------------------5-5-5-5-5-5-5-5--7-7-7-7-7-7-7-7-|


Alternatively you can play the violin part (not 100% sure about this, but I think it 
sounds pretty close)

e|-------------------17-------------------------17----------------|
B|-17p15----17p15-------17-----17p15----17p15------17-15h17----15-|
G|-------14-------14-------14--------14-------14------------14----|
D|----------------------------------------------------------------|
A|----------------------------------------------------------------|
D|----------------------------------------------------------------|

e|----------17----------------------------------------------------|
B|-17-15-------17-----15-15h17-15-17h19-19h20-19-17-15------------|
G|-------14-------14----------------------------------------------|
D|----------------------------------------------------------------|
A|----------------------------------------------------------------|
D|----------------------------------------------------------------|


BRIDGE (x8)
e|-5-5--5-5-------------------------------|
B|-x-x--x-x--7-7--7-7--7-7--7-7--5-5--5-5-|
G|-7-7--7-7--7-7--7-7--7-7--7-7--7-7--7-7-|
D|-5-5--5-5--5-5--5-5--7-7--7-7--7-7--7-7-|
A|----------------------------------------|
D|----------------------------------------|


OUTRO (x6)
e|-2---2---2---2----0---0---0---0-----------------------0-------0-----|
B|---3-------3--------3-------3------2-3-2---2-3-2----3---3---3---3---|
G|-------2-------2--------2-------2--------2-------2--------2-------2-|
D|--------------------------------------------------------------------|
A|--------------------------------------------------------------------|
D|--------------------------------------------------------------------|


===GUITAR TWO===

INTRO
e|--------------------------------------------------------|
B|--------------------------------------------------------|
G|-7-7-7-7-7-7-7-7-7-7-11-11-11--9-9-9-9-9-9-9-9--6-6-6-6-|
D|-x-x-x-x-x-x-x-x-x-x--x--x--x--x-x-x-x-x-x-x-x--x-x-x-x-|
A|-5-5-5-5-5-5-5-5-5-5--9--9--9--7-7-7-7-7-7-7-7--4-4-4 4-|
D|--------------------------------------------------------|

e|--------------------------------------------------------|
B|--------------------------------------------------------|
G|-7-7-7-7-7-7-7-7-7-7-14-14-14--9-9-9-9-9-9-9-9-9-9-9-9--|
D|-x-x-x-x-x-x-x-x-x-x--x--x--x--x-x-x-x-x-x-x-x-x-x-x-x--|
A|-5-5-5-5-5-5-5-5-5-5-12-12-12--7-7-7-7-7-7-7-7-7-7-7-7--|
D|--------------------------------------------------------|


PRE-CHORUS
e|-----------------------------------------------------------|
B|-----------------------------------------------------------|
G|-7-7-7-7-7-7-7-7-7-7-7-7-11--9-9-9-9-9-9-14-14-14-14-14-14-|
D|-x-x-x-x-x-x-x-x-x-x-x-x--x--x-x-x-x-x-x--x--x--x--x--x--x-|
A|-5-5-5-5-5-5-5-5-5-5-5-5--9--7-7-7-7-7-7-12-12-12-12-12-12-|
D|-----------------------------------------------------------|

e|-----------------------------------------------------------|
B|-----------------------------------------------------------|
G|-7-7-7-7-7-7-7-7-7-7-7-7-11--9-9-9-9-9-9-9-9-9-9-9-9-------|
D|-x-x-x-x-x-x-x-x-x-x-x-x--x--x-x-x-x-x-x-x-x-x-x-x-x-------|
A|-5-5-5-5-5-5-5-5-5-5-5-5--9--7-7-7-7-7-7-7-7-7-7-7-7-------|
D|-----------------------------------------------------------|


CHORUS
e|-----------------|
B|-----------------|
G|-7-7-7-7-7-7-7-7-|
D|-x-x-x-x-x-x-x-x-| Repeat
A|-5-5-5-5-5-5-5-5-|
D|-----------------|


BRIDGE (x2)
e|----------------------------------------|
B|----------------------------------------|
G|----------------------------------------|
D|-9-9--9-9--9-9--9-9--7-7--7-7--7-7--7-7-|
A|-9-9--9-9--9-9--9-9--7-7--7-7--7-7--7-7-|
D|-9-9--9-9--9-9--9-9--7-7--7-7--7-7--7-7-|

e|----------------------------------------|
B|----------------------------------------|
G|----------------------------------------|
D|-5-5--5-5--5-5--5-5--7-7--7-7--7-7--7-7-|
A|-5-5--5-5--5-5--5-5--7-7--7-7--7-7--7-7-|
D|-5-5--5-5--5-5--5-5--7-7--7-7--7-7--7-7-|


And that's it. Hope it helps!
Tap to rate this tab
# A B C D E F G H I J K L M N O P Q R S T U V W X Y Z