Song name
# A B C D E F G H I J K L M N O P Q R S T U V W X Y Z

Yellowcard - Southern Air tab

This is the Southern Air full band outro. Probably my favorite part of the album.

Tabbed by: metallicaflavor

Tuning: Drop D

Guitar 1 & 2 both play this twice together
e|------------------------------------------------------------------------|
B|------------------------------------------------------------------------|
G|-------------9--9--9--9-------------------------------------------------|
D|--000000000--x--x--x--x--000000000--------------------------------------|
A|--000000000--7--7--7--7--000000000--------------------------------------|
D|--000000000--------------000000000--2-2-2-0-4-0-0-0---------------------|

e|------------------------------------------------------------------------|
B|------------------------------------------------------------------------|
G|-------------11-11-11-11------------------------------------------------|
D|--555555555--x--x--x--x--555555555--------------------------------------|
A|--555555555--9--9--9--9--555555555----4-5-4-----------------------------|
D|--555555555--------------555555555--7-------7-5-5-----------------------|
Guitar 1 keeps on with this progression while Guitar 2 plays the octave chord harmonies 
over it

Guitar 2
e|------------------------------------------------------------------------|
B|------------------------------------------------------------------------|
G|-------------6--6--6--6-------------------------------------------------|
D|--000000000--x--x--x--x--000000000--------------------------------------|
A|--000000000--4--4--4--4--000000000--------------------------------------|
D|--000000000--------------000000000--2-2-2-0-4-0-0-0---------------------|

e|------------------------------------------------------------------------|
B|------------------------------------------------------------------------|
G|-------------7--7--7--7-------------------------------------------------|
D|--555555555--x--x--x--x--555555555--------------------------------------|
A|--555555555--5--5--5--5--555555555----4-5-4-----------------------------|
D|--555555555--------------555555555--7-------7-5-5-----------------------|
Tap to rate this tab
 
# A B C D E F G H I J K L M N O P Q R S T U V W X Y Z