Song name
# A B C D E F G H I J K L M N O P Q R S T U V W X Y Z

Yellowcard - Here I Am Alive tab

Tabbed by: Joshua Garcia (halofreak731@aol.com)

Tabs for the song: Here I Am Alive by Yellowcard
Please rate and let me know if you have any corrections. Thank you.


Tuning: Drop D (D A D G B E)


Intro
Guitar 1:
E||-----------------------------------|
B||-----------------------------------|
G||--5-5-5-5-5-5-5-5-5-5-5-5-5-5-5-5--|
D||-----------------------------------|
A||-----------------------------------|
D||-----------------------------------|
     . . . . . . . . . . . . . . . .



Verse
Guitar 1:
E||-------------------|-------------------|
B||-------------------|-------------------|
G||--5-5-5-5-5-5-5-5--|--5-5-5-5-5-5-5-5--|
D||-------------------|-------------------|
A||-------------------|-------------------|
D||-------------------|-------------------|
     . . . . . . . .     . . . . . . . .

E||-----------------|-------------------|
B||-----------------|-------------------|
G||--5-5-5-5-5-5-5--|--9-9-9-9-9-7-7-7--|
D||-----------------|-------------------| x4
A||-----------------|-------------------|
D||-----------------|-------------------|
     . . . . . . .     . . . . . . . .


Guitar 2:
E||---------------------------|---------------------------|
B||---------------------------|---------------------------|
G||---------------------------|---------------------------|
D||---------------------------|---------------------------|
A||--10-10-10-10-10-10-10-10--|--10-10-10-10-10-10-10-10--|
D||---------------------------|---------------------------|
     .  .  .  .  .  .  .  .      .  .  .  .  .  .  .  .

E||------------------------|-------------------|
B||------------------------|-------------------|
G||------------------------|-------------------|
D||------------------------|-------------------| x4
A||--10-10-10-10-10-10-10--|--7-7-7-7-7-8-8-8--|
D||------------------------|-------------------|
     .  .  .  .  .  .  .      . . . . . . . .



Chorus
Guitar 1:
E||-----------------------------------------|
B||-----------------------------------------|
G||--7777-----9-9~---7-7~---55555-----5555--|
D||--5555-----7-7~---5-5~---33333-----3333--| x4
A||--5555-----7-7~---5-5~---33333-----3333--|
D||--5555-----7-7~---5-5~---33333-----3333--|


Guitar 2:
E||-----------------------------------------|-------------------------------------------|
B||-----------------------------------------|-------------------------------------------|
G||--5555-----9-9~---7-7~---55555-----5555--|--5555-----9-9~---12-12~---55555-----5555--|
D||--xxxx-----x-x----x-x----xxxxx-----xxxx--|--xxxx-----x-x----x--x-----xxxxx-----xxxx--| x2
A||--3333-----7-7~---5-5~---33333-----3333--|--3333-----7-7~---10-10~---33333-----3333--|
D||-----------------------------------------|-------------------------------------------|


Guitar 3:
E||-----------------------------------|
B||-----------------------------------|
G||--5-5-5-5-5-5-5-5-9-9-9-9-9-7-7-7--|
D||--x-x-x-x-x-x-x-x-x-x-x-x-x-x-x-x--| x8
A||--3-3-3-3-3-3-3-3-7-7-7-7-7-5-5-5--|
D||-----------------------------------|



Verse
Guitar 1:
E||-------------------|-------------------|
B||-------------------|-------------------|
G||--5-5-5-5-5-5-5-5--|--5-5-5-5-5-5-5-5--|
D||-------------------|-------------------|
A||-------------------|-------------------|
D||-------------------|-------------------|
     . . . . . . . .     . . . . . . . .

E||-----------------|-------------------|
B||-----------------|-------------------|
G||--5-5-5-5-5-5-5--|--9-9-9-9-9-7-7-7--|
D||-----------------|-------------------| x4
A||-----------------|-------------------|
D||-----------------|-------------------|
     . . . . . . .     . . . . . . . .


Guitar 2:
E||---------------------------|---------------------------|
B||---------------------------|---------------------------|
G||---------------------------|---------------------------|
D||---------------------------|---------------------------|
A||--10-10-10-10-10-10-10-10--|--10-10-10-10-10-10-10-10--|
D||---------------------------|---------------------------|
     .  .  .  .  .  .  .  .      .  .  .  .  .  .  .  .

E||------------------------|-------------------|
B||------------------------|-------------------|
G||------------------------|-------------------|
D||------------------------|-------------------| x4
A||--10-10-10-10-10-10-10--|--7-7-7-7-7-8-8-8--|
D||------------------------|-------------------|
     .  .  .  .  .  .  .      . . . . . . . .



Chorus
Guitar 1:
E||-----------------------------------------|
B||-----------------------------------------|
G||--7777-----9-9~---7-7~---55555-----5555--|
D||--5555-----7-7~---5-5~---33333-----3333--| x4
A||--5555-----7-7~---5-5~---33333-----3333--|
D||--5555-----7-7~---5-5~---33333-----3333--|


Guitar 2:
E||-----------------------------------------|-------------------------------------------|
B||-----------------------------------------|-------------------------------------------|
G||--5555-----9-9~---7-7~---55555-----5555--|--5555-----9-9~---12-12~---55555-----5555--|
D||--xxxx-----x-x----x-x----xxxxx-----xxxx--|--xxxx-----x-x----x--x-----xxxxx-----xxxx--| x2
A||--3333-----7-7~---5-5~---33333-----3333--|--3333-----7-7~---10-10~---33333-----3333--|
D||-----------------------------------------|-------------------------------------------|


Guitar 3:
E||-----------------------------------|
B||-----------------------------------|
G||--5-5-5-5-5-5-5-5-9-9-9-9-9-7-7-7--|
D||--x-x-x-x-x-x-x-x-x-x-x-x-x-x-x-x--| x8
A||--3-3-3-3-3-3-3-3-7-7-7-7-7-5-5-5--|
D||-----------------------------------|



Bridge
Guitar 1:
E||-------------------|-------------------|
B||-------------------|-------------------|
G||--5-5-5-5-5-5-5-5--|--5-5-5-5-5-5-5-5--|
D||-------------------|-------------------|
A||-------------------|-------------------|
D||-------------------|-------------------|
     . . . . . . . .     . . . . . . . .

E||-----------------|-------------------|
B||-----------------|-------------------|
G||--5-5-5-5-5-5-5--|--9-9-9-9-9-7-7-7--|
D||-----------------|-------------------| x4
A||-----------------|-------------------|
D||-----------------|-------------------|
     . . . . . . .     . . . . . . . .


Guitar 2:
E||---------------------------|---------------------------|
B||---------------------------|---------------------------|
G||---------------------------|---------------------------|
D||---------------------------|---------------------------|
A||--10-10-10-10-10-10-10-10--|--10-10-10-10-10-10-10-10--|
D||---------------------------|---------------------------|
     .  .  .  .  .  .  .  .      .  .  .  .  .  .  .  .

E||------------------------|-------------------|
B||------------------------|-------------------|
G||------------------------|-------------------|
D||------------------------|-------------------| x4
A||--10-10-10-10-10-10-10--|--7-7-7-7-7-8-8-8--|
D||------------------------|-------------------|
     .  .  .  .  .  .  .      . . . . . . . .



E||---------------------------|---------------|
B||---------------------------|---------------|
G||---------------------------|---------------|
D||---------------------------|---------------|
A||--10-10-10-10-10-10-10-10--|--10-10-10-10--|
D||---------------------------|---------------|
     .  .  .  .  .  .  .  .      .  .  .  .



Chorus
Guitar 1:
E||-----------------------------------------|
B||-----------------------------------------|
G||--7777-----9-9~---7-7~---55555-----5555--|
D||--5555-----7-7~---5-5~---33333-----3333--| x6
A||--5555-----7-7~---5-5~---33333-----3333--|
D||--5555-----7-7~---5-5~---33333-----3333--|


Guitar 2:
E||-----------------------------------------|-------------------------------------------|
B||-----------------------------------------|-------------------------------------------|
G||--5555-----9-9~---7-7~---55555-----5555--|--5555-----9-9~---12-12~---55555-----5555--|
D||--xxxx-----x-x----x-x----xxxxx-----xxxx--|--xxxx-----x-x----x--x-----xxxxx-----xxxx--| x3
A||--3333-----7-7~---5-5~---33333-----3333--|--3333-----7-7~---10-10~---33333-----3333--|
D||-----------------------------------------|-------------------------------------------|


Guitar 3:
E||-----------------------------------|
B||-----------------------------------|
G||--5-5-5-5-5-5-5-5-9-9-9-9-9-7-7-7--|
D||--x-x-x-x-x-x-x-x-x-x-x-x-x-x-x-x--| x12
A||--3-3-3-3-3-3-3-3-7-7-7-7-7-5-5-5--|
D||-----------------------------------|



Outro
Guitar 1:
E||-------------------|-------------------|
B||-------------------|-------------------|
G||--5-5-5-5-5-5-5-5--|--5-5-5-5-5-5-5-5--|
D||-------------------|-------------------|
A||-------------------|-------------------|
D||-------------------|-------------------|
     . . . . . . . .     . . . . . . . .

E||-----------------|-----------------|
B||-----------------|-----------------|
G||--5-5-5-5-5-5-5--|--9-9-9-9-9-7-7--|
D||-----------------|-----------------|
A||-----------------|-----------------|
D||-----------------|-----------------|
     . . . . . . .     . . . . . . .


Guitar 2:
E||---------------------------|---------------------------|
B||---------------------------|---------------------------|
G||---------------------------|---------------------------|
D||---------------------------|---------------------------|
A||--10-10-10-10-10-10-10-10--|--10-10-10-10-10-10-10-10--|
D||---------------------------|---------------------------|
     .  .  .  .  .  .  .  .      .  .  .  .  .  .  .  .

E||------------------------|-----------------|
B||------------------------|-----------------|
G||------------------------|-----------------|
D||------------------------|-----------------|
A||--10-10-10-10-10-10-10--|--7-7-7-7-7-8-8--|
D||------------------------|-----------------|
     .  .  .  .  .  .  .      . . . . . . .




Tablature Legend
----------------
 h   - hammer-on
 p   - pull-off
 b   - bend
 r   - release bend
 *   - pinch harmonic
 '   - natural harmonic
 x   - mute note
 .   - palm mute
 /   - slide down
 \   - slide up
Tap to rate this tab
 
# A B C D E F G H I J K L M N O P Q R S T U V W X Y Z