Song name
# A B C D E F G H I J K L M N O P Q R S T U V W X Y Z

Yellowcard - Southern Air tab

Tabbed by: Joshua Garcia (halofreak731@aol.com)

Tabs for the song: Southern Air by Yellow
Please rate and let me know if you have any corrections. Thank you.


Tuning: Drop D (D A D G B E)


Intro
Guitar 1:
E||----------------------------------------------------------------------------------------|
B||----------------------------------------------------------------------------------------|
G||----------------------------------------------------------------------------------------|
D||------------------------------------------------------------------------------------77--|
A||--55--55--55--55--5555--44--55--55--55--5555--55--55--55--55--5555--55--55--55--55--55--|
D||--00--00--00--00--0000--77--77--77--77--7777--44--44--44--44--4444--55--55--55--55--55--|



Verse
Guitar 1/2:
E||------------------------------------------------------------------------------------------|
B||------------------------------------------------------------------------------------------|
G||------------------------------------------------------------------------------------------|
D||--------------------------------------------------------------------77--77--77--77--7777--| x2
A||--55--55--55--55--5555--44--55--55--55--5555--55--55--55--55--5555--55--55--55--55--5555--|
D||--00--00--00--00--0000--77--77--77--77--7777--44--44--44--44--4444--55--55--55--55--5555--|



Pre-Chorus
Guitar 1/2:
E||-----------------------------------------------------------------------------|
B||-----------------------------------------------------------------------------|
G||-----------------------------------------------------------------------------|
D||-----------------------------------------------------------------------------|
A||--55--55--55--55--5555--55--55--55--55--5555--55--55--55--55--5555--55--55\--|
D||--99--99--99--99--9999--77--77--77--77--7777--44--44--44--44--4444--55--55\--|



Chorus
Guitar 1/2:
E||----------------------------------------------------------------------------------|
B||----------------------------------------------------------------------------------|
G||--------------------------------------44--44--44--44--44444-----------------------|
D||--00--00--00--00~---22--22--00--00~---44--44--44--44--44444-55--5--555--5--55555--| x2
A||--00--00--00--00~---22--22--00--00~---22--22--22--22--22222-55--5--555--5--55555--|
D||--00--00--00--00~---22--22--00--00~-------------------------55--5--555--5--55555--|



Pre Verse
Guitar 1:
E||----------------------|
B||----------------------|
G||----------------------|
D||----------------------|
A||--55--55--55--55--55--|
D||--00--00--00--00--00--|


Guitar 2:
E||----------------------|
B||----------------------|
G||----------------------|
D||----------------------|
A||------------------55--|
D||------------------00--|



Verse
Guitar 1/2:
E||------------------------------------------------------------------------------------------|
B||------------------------------------------------------------------------------------------|
G||------------------------------------------------------------------------------------------|
D||--------------------------------------------------------------------77--77--77--77--7777--|
A||--55--55--55--55--5555--44--55--55--55--5555--55--55--55--55--5555--55--55--55--55--5555--|
D||--00--00--00--00--0000--77--77--77--77--7777--44--44--44--44--4444--55--55--55--55--5555--|



Pre-Chorus
Guitar 1/2:
E||------------------------------------------------------------------------------------------|
B||------------------------------------------------------------------------------------------|
G||------------------------------------------------------------------------------------------|
D||------------------------------------------------------------------------------------------|
A||--55--55--55--55--5555--55--55--55--55--5555--55--55--55--55--5555--55--55--55--55--5555--|
D||--99--99--99--99--9999--77--77--77--77--7777--44--44--44--44--4444--55--55--55--55--5555--|


E||-----------|
B||-----------|
G||-----------|
D||-----------|
A||--55--55\--|
D||--55--55\--|



Chorus
Guitar 1/2:
E||----------------------------------------------------------------------------------|
B||----------------------------------------------------------------------------------|
G||--------------------------------------44--44--44--44--44444-----------------------|
D||--00--00--00--00~---22--22--00--00~---44--44--44--44--44444-55--5--555--5--55555--| x2
A||--00--00--00--00~---22--22--00--00~---22--22--22--22--22222-55--5--555--5--55555--|
D||--00--00--00--00~---22--22--00--00~-------------------------55--5--555--5--55555--|


Guitar 1:
E||-------------------------------------------------------------------------|
B||-------------------------------------------------------------------------|
G||--999999999999-6666-7777777777777777-999999999999-6666-7777777777777777--|
D||--xxxxxxxxxxxx-xxxx-xxxxxxxxxxxxxxxx-xxxxxxxxxxxx-xxxx-xxxxxxxxxxxxxxxx--|
A||--777777777777-4444-5555555555555555-777777777777-4444-5555555555555555--|
D||-------------------------------------------------------------------------|


Guitar 2:
E||---------------------------------------------------------------------------------|
B||---------------------------------------------------------------------------------|
G||---------------------------------------------------------------------------------|
D||--77--777--777--799--955--555--555--555--577--777--777--799--955--555--555--555--|
A||--77--777--777--799--955--555--555--555--577--777--777--799--955--555--555--555--|
D||--77--777--777--799--955--555--555--555--577--777--777--799--955--555--555--555--|



Bridge
Guitar 1:
E||---------------|--------------------|
B||---------------|--------------------|
G||---------------|--------------------|
D||--5555---0000--|--7/999---11111111--|
A||--5555---0000--|--7/999---12121212--|
D||--5555---0000--|--7/999---11111111--|


E||---------------|--------------------|---------|
B||---------------|--------------------|---------|
G||---------------|--------------------|--9/11~--|
D||--5555---0000--|--7/999---11111111--|--x/x----|
A||--5555---0000--|--7/999---12121212--|--7/9-~--|
D||--5555---0000--|--7/999---11111111--|---------|


E||---------------|----------|---------------------|---------|
B||---------------|----------|---------------------|---------|
G||---------------|--12\11~--|---------------------|--9/11~--|
D||--5555---0000--|--x-\x----|--7/999----11111111--|--x/x----| x2
A||--5555---0000--|--10\9-~--|--7/999----12121212--|--7/9-~--|
D||--5555---0000--|----------|--7/999----11111111--|---------|


Guitar 2:
E||---------------|-------------------|
B||---------------|-------------------|
G||--7777---7777--|--9/111111---9999--|
D||--xxxx---xxxx--|--x/x-x-x----xxxx--| x4
A||--5555---5555--|--7/9-9-9----7777--|
D||---------------|-------------------|



Interlude
Guitar 1:
E||------|------|------|------|
B||------|------|------|------|
G||------|------|------|------|
D||--5~--|--0~--|--9~--|--7~--| x2
A||--5~--|--0~--|--9~--|--7~--|
D||--5~--|--0~--|--9~--|--7~--|
     .      .      .      .



Chorus
Guitar 1/2:
E||----------------------------------------------------------------------------------|
B||----------------------------------------------------------------------------------|
G||--------------------------------------44--44--44--44--44444-----------------------|
D||--00--00--00--00~---22--22--00--00~---44--44--44--44--44444-55--5--555--5--55555--| x2
A||--00--00--00--00~---22--22--00--00~---22--22--22--22--22222-55--5--555--5--55555--|
D||--00--00--00--00~---22--22--00--00~-------------------------55--5--555--5--55555--|


Guitar 1:
E||-------------------------------------------------------------------------|
B||-------------------------------------------------------------------------|
G||--999999999999-6666-7777777777777777-999999999999-6666-7777777777777777--|
D||--xxxxxxxxxxxx-xxxx-xxxxxxxxxxxxxxxx-xxxxxxxxxxxx-xxxx-xxxxxxxxxxxxxxxx--|
A||--777777777777-4444-5555555555555555-777777777777-4444-5555555555555555--|
D||-------------------------------------------------------------------------|


Guitar 2:
E||---------------------------------------------------------------------------------|
B||---------------------------------------------------------------------------------|
G||---------------------------------------------------------------------------------|
D||--77--777--777--799--955--555--555--555--577--777--777--799--955--555--555--555--|
A||--77--777--777--799--955--555--555--555--577--777--777--799--955--555--555--555--|
D||--77--777--777--799--955--555--555--555--577--777--777--799--955--555--555--555--|



Outro
Guitar 1/2:
E||----------------------------------------|------------------------------------------|
B||----------------------------------------|------------------------------------------|
G||------------9-9-9-----------------------|------------11-11-11----------------------|
D||--00000000--x-x-x---00000000------------|--55555555--x--x--x----55555555-----------| x2
A||--00000000--7-7-7---00000000------------|--55555555--9--9--9----55555555---4540----|
D||--00000000---------000000000--22204000--|--55555555------------055555555--0----55--|
(slight bend in octaves)


Guitar 1:
E||----------------------------------------|------------------------------------------|
B||----------------------------------------|------------------------------------------|
G||------------9-9-9-----------------------|------------11-11-11----------------------|
D||--00000000--x-x-x---00000000------------|--55555555--x--x--x----55555555-----------| x2
A||--00000000--7-7-7---00000000------------|--55555555--9--9--9----55555555---4540----|
D||--00000000---------000000000--22204000--|--55555555------------055555555--0----55--|


Guitar 2:
E||----------------------------------------|---------------------------------------|
B||----------------------------------------|---------------------------------------|
G||------------6-6-6-----------------------|------------7-7-7----------------------|
D||--00000000--x-x-x---00000000------------|--55555555--x-x-x---55555555-----------| x2
A||--00000000--4-4-4---00000000------------|--55555555--5-5-5---55555555---4540----|
D||--00000000---------000000000--22204000--|--55555555---------055555555--0----55--|



Acoustic:
E||-----------------------|-----------------------|---------2--2-------0~--|--------|
B||-----------------------|-----------------------|-------3----3-------0~--|---3~---|
G||--------7----------7~--|--------7----------7~--|------------------------|---4~---|
D||--------7----------7~--|--------7----------7~--|----4---------4---4-----|---x~---|
A||--00--0-----00---0-----|--00--0-----00---0-----|--2-----------2---2-----|---5~---|
D||--00--0-----00---0-----|--00--0-----00---0-----|------------------------|---5~---|




Tablature Legend
----------------
 h   - hammer-on
 p   - pull-off
 b   - bend
 r   - release bend
 *   - pinch harmonic
 '   - natural harmonic
 x   - mute note
 .   - palm mute
 /   - slide down
 \   - slide up
Tap to rate this tab
# A B C D E F G H I J K L M N O P Q R S T U V W X Y Z