Song name
# A B C D E F G H I J K L M N O P Q R S T U V W X Y Z

Yellowcard - Rivertown tab

------------------------------
 Rivertown Blues ~ Yellowcard
------------------------------
 Album:  Southern Air  (2012)

Tabbed By: Russcool
(I know, pretty lame name)

Tuning: Drop D

Part: Solo

Key: C

Tempo: 187bpm



  Guitar 1
E|---------------12~---------------12~------------|
B|---13----15----------13----15----------13~~-----|
G|------------------------------------------------|
D|------------------------------------------------|
A|------------------------------------------------|
D|------------------------------------------------|

E|----------------------------------------------------------------------|
B|----------------------------------------------------------------------|
G|------------------------------------------------10---12---14---12~~---|
D|-------------10--------10---12---10---12---14-------------------------|
A|---12---14--------14--------------------------------------------------|
D|----------------------------------------------------------------------|

E|---15b17b15----12~-------------|
B|----------------------13-------|
G|-------------------------------|
D|-------------------------------|
A|-------------------------------|
D|-------------------------------|

E|---12~----------------------------19--------15---------------------------------------------|
B|--------------17---18---17----------------------------15h17p15----------15h17----17b18~~---|
G|---------17------------------17--------17--------17------------17p16h17--------------------|
D|-------------------------------------------------------------------------------------------|
A|-------------------------------------------------------------------------------------------|
D|-------------------------------------------------------------------------------------------|

E|---------------------------------------------|
B|---17p15--17b18~---17p15--17b18~---17p15-----|
G|---------------------------------------------|
D|---------------------------------------------|
A|---------------------------------------------|
D|---------------------------------------------|

E|-----------------------------12~~---|
B|-------------13------13--15---------|
G|---14~~--12------12-----------------|
D|------------------------------------|
A|------------------------------------|
D|------------------------------------|

E|----------12------12h13--15~---|
B|---13h15------15---------------|
G|-------------------------------|
D|-------------------------------|
A|-------------------------------|
D|-------------------------------|

E|----------171717171717---------191919191919------------|
B|---17h18----------------17h20----------------17h20-----|
G|-------------------------------------------------------|
D|-------------------------------------------------------|
A|-------------------------------------------------------|
D|-------------------------------------------------------|

E|---19h20p19----19h20p19----19h20p19-------1919------2020------1919------2020---------|
B|------------20----------20----------20---------2020------2020------2020------2020----|
G|-------------------------------------------------------------------------------------|
D|-------------------------------------------------------------------------------------|
A|-------------------------------------------------------------------------------------|
D|-------------------------------------------------------------------------------------|



  Guitar 2
E|---12----13----15~---12----13-----15~--12~~-----|
B|------------------------------------------------|
G|------------------------------------------------|
D|------------------------------------------------|
A|------------------------------------------------|
D|------------------------------------------------|

E|----------------------------------------------------------------------|
B|----------------------------------------------------------------------|
G|----------------------------------------------------------------------|
D|----------------------------------------------------------------------|
A|----------------------------------------------------------------------|
D|----------------------------------------------------------------------|

E|---12b13b12--------------------|
B|---------------13~-------------|
G|----------------------14-------|
D|-------------------------------|
A|-------------------------------|
D|-------------------------------|

E|----------------------------------15--------12---------------------------------------------|
B|---13~---13---13---15---13---13--------13--------13---12h13p12----------12h13--------------|
G|---------------------------------------------------------------14p12h14--------------------|
D|-------------------------------------------------------------------------------------------|
A|-------------------------------------------------------------------------------------------|
D|-------------------------------------------------------------------------------------------|

E|---------------------------------------------|
B|---------------------------------------------|
G|---------------------------------------------|
D|---------------------------------------------|
A|---------------------------------------------|
D|---------------------------------------------|

E|-------------12------12--13--15~~---|
B|------------------------------------|
G|---------12------12-----------------|
D|------------------------------------|
A|------------------------------------|
D|------------------------------------|

E|-------------------------------|
B|-------------------------------|
G|-------------------------------|
D|-------------------------------|
A|-------------------------------|
D|-------------------------------|

E|-------------------------------------------------------|
B|-------------------------------------------------------|
G|-------------------------------------------------------|
D|-------------------------------------------------------|
A|-------------------------------------------------------|
D|-------------------------------------------------------|

E|-------------------------------------------------------------------------------------|
B|-------------------------------------------------------------------------------------|
G|-------------------------------------------------------------------------------------|
D|-------------------------------------------------------------------------------------|
A|-------------------------------------------------------------------------------------|
D|-------------------------------------------------------------------------------------|
Tap to rate this tab
 
# A B C D E F G H I J K L M N O P Q R S T U V W X Y Z