Song name
# A B C D E F G H I J K L M N O P Q R S T U V W X Y Z

Yellowcard - Surface Of The Sun tab

Tuning: Drop D.

Intro:

e|-------------------------------------------------------------------|
B|-------------------------------------------------------------------|
G|-------------------------------------------------------------------|
D|-0-2-0--5-55-55--5555--0-2-0--0-00-00--0000------------------------|
A|-0-2-0--3-33-33--3333--0-2-0--0-00-00--0000------------------------|
D|-0-2-0-----------------0-2-0--0-00-00--0000------------------------|

e|------------------------------------------------------------------|
B|------------------------------------------------------------------|
G|------------------------------------------------------------------|
D|-0-2-0--5-55-55--5555--0-2-0--0-00-00--0000-----------------------|
A|-0-2-0--3-33-33--3333--0-2-0--0-00-00--0000----------------|
D|-0-2-0-----------------0-2-0--0-00-00--0000-----------------------|

Verse 1: 'This is a story...'

e|-----------------------------------------------------------------------------------|
B|-----------------------------------------------------------------------------------|
G|-12 12 12 12 12 12 12 12 12 12 12 12 12 12 12 12-16 16 16-16 16 16 16 16-----------|
D|-x--x--x-x--x--x-x--x--x--x-x--x--x-x--x--x--x-x--x--x-x--x-x--x-------------------|
A|-10 10 10 10 10 10 10 10 10 10 10 10 10 10 10 10-14 14 14 14 14 14 14 14-----------|
D|-----------------------------------------------------------------------------------|

e|---------------------------------------------------------------------------------|
B|---------------------------------------------------------------------------------|
G|-11 11 11 11 11 11 11 11---------------------------------------------------------|
D|--x-x--x--x-x--x--x-x-----X2-----------------------------------------------------|
A|-9--9--9--9- 9- 9--9-9-----------------------------------------------------------|
D|-------------------------------12/-----------------------------------------------|

e|-----------------------------------------------------------------|
B|-----------------------------------------------------------------|
G|-----------------------------------------------------------------|
D|--22-222-222-22222--55555555-00000000-----X2---------------------|
A|--22-222-222-22222--55555555-00000000----------------------------|
D|--22-222-222-22222--55555555-00000000----------------------------|

Chorus:

'We were born...'

e|-------------------------------------------------------------------------------------|
B|----------------------------------3-------------3------------------------------------|
G|------0-----0------0------0--------------0------------0------------------0------0----|
D|--------------------------------------------------------------4-----4----------------|
A|----------------------2-2----3-3----3-3----3-3----3-3--------------------------------|
D|--2-2---2-2---2-2----------------------------------------5-5---5-5---5-5---5-5-------|

2nd 'We were born...'

e|------------------------------------------------------------------------------------|
B|------------------------------------------------------------------------------------|
G|------4-----------4------------5-----------5------------7-----------7---------------|
D|------------5------------5-----------5------------5-----------5------------5--------|
A|---------------------2-2---3-3---3-3---3-3---3-3------------------------------------|
D|--2-2---2-2---2-2-----------------------------------5-5---5-5---5-5---5-5----5-5----|

Cont... 'It burns like...'                            ↓ Comes in at the same time as '0'.

e|-----------------------------/---------------------------------------------------------|
B|-----------------------------/---------------------------------------------------------|
G|-----------------------------/--11 11 11 11 11 11 11 11 11 11 11 11 11 11 11 11 11 11--|
D|-----------------------------/--x--x--x--x-x--x-x--x--x-x--x--x--x-x--x--x-x--x--------|
A|-----------------------------/--9--9--9--9-9--9-9--9--9-9--9--9-9-9---9-9--9--9--------|
D|-000000000000000000000000--/-----------------------------------------------------------|

Intro:

e|-------------------------------------------------------------------|
B|-------------------------------------------------------------------|
G|-------------------------------------------------------------------|
D|-0-2-0--5-55-55--5555--0-2-0--0-00-00--0000------------------------|
A|-0-2-0--3-33-33--3333--0-2-0--0-00-00--0000------------------------|
D|-0-2-0-----------------0-2-0--0-00-00--0000------------------------|

e|-----------------------------------------------------------------------|
B|-----------------------------------------------------------------------|
G|-----------------------------------------------------------------------|
D|-0-2-0--5-55-55--5555--0-2-0--0-00-00--00000000------------------------|
A|-0-2-0--3-33-33--3333--0-2-0--0-00-00--00000000------------------------|
D|-0-2-0-----------------0-2-0--0-00-00--00000000------------------------|

Verse 2: 'Here in this angel city...'

e|-----------------------------------------------------------------------------------|
B|-----------------------------------------------------------------------------------|
G|-12 12 12 12 12 12 12 12 12 12 12 12 12 12 12 12-16 16 16-16 16 16 16 16-----------|
D|-x--x--x-x--x--x-x--x--x--x-x--x--x-x--x--x--x-x--x--x-x--x-x--x-------------------|
A|-10 10 10 10 10 10 10 10 10 10 10 10 10 10 10 10-14 14 14 14 14 14 14 14-----------|
D|-----------------------------------------------------------------------------------|

e|---------------------------------------------------------------------------------|
B|---------------------------------------------------------------------------------|
G|-11 11 11 11 11 11 11 11---------------------------------------------------------|
D|--x-x--x--x-x--x--x-x-----X2-----------------------------------------------------|
A|-9--9--9--9- 9- 9--9-9-----------------------------------------------------------|
D|-------------------------------12/-----------------------------------------------|

e|-----------------------------------------------------------------|
B|-----------------------------------------------------------------|
G|-----------------------------------------------------------------|
D|--22-222-222-22222--55555555-00000000-----X2---------------------|
A|--22-222-222-22222--55555555-00000000----------------------------|
D|--22-222-222-22222--55555555-00000000----------------------------|

Chorus:

'We were born...'

e|-------------------------------------------------------------------------------------|
B|----------------------------------3-------------3------------------------------------|
G|------0-----0------0------0--------------0------------0------------------0------0----|
D|--------------------------------------------------------------4-----4----------------|
A|----------------------2-2----3-3----3-3----3-3----3-3--------------------------------|
D|--2-2---2-2---2-2----------------------------------------5-5---5-5---5-5---5-5-------|

2nd 'We were born...'

e|------------------------------------------------------------------------------------|
B|------------------------------------------------------------------------------------|
G|------4-----------4------------5-----------5------------7-----------7---------------|
D|------------5------------5-----------5------------5-----------5------------5--------|
A|---------------------2-2---3-3---3-3---3-3---3-3------------------------------------|
D|--2-2---2-2---2-2-----------------------------------5-5---5-5---5-5---5-5----5-5----|

Cont... 'It burns like...'

e|---------------------------------------------------------------|
B|---------------------------------------------------------------|
G|---------------------------------------------------------------|
D|---------------------------------------------------------------|
A|---------------------------------------------------------------|
D|--0000000000000000-----*Pick Slide*----------------------------|

'Suface of the suuuuuuuuuuuuuuun...'

e|---------------------------------------------------------------------------------|
B|---------------------------------------------------------------------------------|
G|---------------------------------------------------------------------------------|
D|--2222222222222--555-5555555555555555-5555555555555555-0000000000000000----------|
A|--2222222222222--222-3333333333333333-5555555555555555-0000000000000000----------|
D|--2222222222222-----------------------5555555555555555-0000000000000000----------|

'To show the faithless...'

e|---------------------------------------------------------------------------------|
B|---------------------------------------------------------------------------------|
G|---------------------------------------------------------------------------------|
D|--2222222222222--555-5555555555555555-5555555555555555-0000000000000000----------|
A|--2222222222222--222-3333333333333333-5555555555555555-0000000000000000----------|
D|--2222222222222-----------------------5555555555555555-0000000000000000----------|

Tiny break for violin and drums.

e|-----------------------------------------------------------------|
B|-----------------------------------------------------------------|
G|-----------------------------------------------------------------|
D|-----------------------------------------------------------------|
A|-----------------------------------------------------------------|
D|--12/--222222222222-4444-55555555-00000000-----------------------|

Second break for violin and drums.

e|-----------------------------------------------------------------|
B|-----------------------------------------------------------------|
G|-----------------------------------------------------------------|
D|-----------------------------------------------------------------|
A|-----------------------------------------------------------------|
D|--12/--222222222222-4444-55555555-00000000-----------------------|

Interlude: 'Another million miles...'

e|---------------------------------------------------------------------------|
B|---------------------------------------------------------------------------|
G|--5555555555555555---------------------------------------------------------|
D|--5555555555555555- 00000000000000-0-2-0-555555555555--0-2-0---------------|
A|--3333333333333333- 00000000000000-0-2-0-333333333333--0-2-0---------------|
Dl--------------------00000000000000-0-2-0----------------0-2-0--------------|

^ Cont...

e|-----------------------------------------------------------------|
B|-----------------------------------------------------------------|
G|-----------------------------------------------------------------|
D|--0000000000000000-----------------------------------------------|
A|--0000000000000000-----------------------------------------------|
E|- 0000000000000000-----------------------------------------------|

Chorus: 'We were born...'

e|-------------------------------------------------------------------------------------|
B|----------------------------------3-------------3------------------------------------|
G|------0-----0------0------0--------------0------------0------------------0------0----|
D|--------------------------------------------------------------4-----4----------------|
A|----------------------2-2----3-3----3-3----3-3----3-3--------------------------------|
D|--2-2---2-2---2-2----------------------------------------5-5---5-5---5-5---5-5-------|

'We were born to be...'

e|---------------------------------------------------------------------------------|
B|---------------------------------------------------------------------------------|
G|---------------------------------------------------------------------------------|
D|--2222222222222--555-5555555555555555-5555555555555555-0000000000000000----------|
A|--2222222222222--222-3333333333333333-5555555555555555-0000000000000000----------|
D|--2222222222222-----------------------5555555555555555-0000000000000000----------|

"It burns like the surface of the suuuuuuuuuuuuuun!'

e|---------------------------------------------------------------------------------|
B|---------------------------------------------------------------------------------|
G|---------------------------------------------------------------------------------|
D|--2222222222222--555-5555555555555555-5555555555555555-0000000000000000----------|
A|--2222222222222--222-3333333333333333-5555555555555555-0000000000000000----------|
D|--2222222222222-----------------------5555555555555555-0000000000000000----------|

'And burn like the surface of the suuuuuuuuuuuuuun!'

e|---------------------------------------------------------------------------------|
B|---------------------------------------------------------------------------------|
G|---------------------------------------------------------------------------------|
D|--2222222222222--555-5555555555555555-5555555555555555-0000000000000000----------|
A|--2222222222222--222-3333333333333333-5555555555555555-0000000000000000----------|
D|--2222222222222-----------------------5555555555555555-0000000000000000----------|

Outro:

e|-------------------------------------------------------------------|
B|-------------------------------------------------------------------|
G|-------------------------------------------------------------------|
D|-0-2-0--5-55-55--5555--0-2-0--0-00-00--0000------------------------|
A|-0-2-0--3-33-33--3333--0-2-0--0-00-00--0000------------------------|
D|-0-2-0-----------------0-2-0--0-00-00--0000------------------------|

e|--------------------------------------------------------------------------|
B|--------------------------------------------------------------------------|
G|--------------------------------------------------------------------------|
D|-0-2-0--5-55-55--5555--0-2-0--0~~~~~~~~      -----------------------------|
A|-0-2-0--3-33-33--3333--0-2-0--0~~~~~~~~  
                        
                    
Tap to rate this tab
# A B C D E F G H I J K L M N O P Q R S T U V W X Y Z