Song name
# A B C D E F G H I J K L M N O P Q R S T U V W X Y Z

Yellowcard - Telescope tab

Tabbed by: Sam Lara
E-mail: samlennon94@hotmail.co.uk

Tuning: D

Intro & Verse - Ryan Key's guitar.

e|------------------------------------------------------------------------------|
B|------------------------------------------------------------------------------|
G|------0-----------0-------0-------0-------------------------------------------|
D|----5----------12-------5-------4----X9---------------------------------------|
A|--2---------10--------2-------0-----------------------------------------------|
E|-2-------10---------0-------0-------------------------------------------------|

Intro & Verse - Ryan Mendez's guitar.

e|-------7-----7-----------5-----5----------------------------------------------|
B|-----8---------8-------8---------8--------------------------------------------|
G|-0-0-----0-0------0-0-----0-0----------X9-------------------------------------|
D|------------------------------------------------------------------------------|
A|------------------------------------------------------------------------------|
E|------------------------------------------------------------------------------|

Chorus - Ryan Key & Ryan Mendez's guitar.

e|-------------------------------------------------------------------------------|
B|-------------------------------------------------------------------------------|
G|-------------------------------------------------------------------------------|
D|-12-----0-----5-----7----------------------------------------------------------|
A|-10-X8--0-X8--2-X8-5--X8-------------------------------------------------------|
E|-10-----0------2----5----------------------------------------------------------|


Post Chorus - Ryan Key & Ryan Mendez's guitar.

e|-----------------------------------------------------------------------------------|
B|-----------------------------------------------------------------------------------|
G|-----------------------------------------------------------------------------------|
D|-12-----0--------------------------------------------------------------------------|
A|-10-X8--0-X5-----------------------------------------------------------------------|
E|-10-----0--------------------------------------------------------------------------|

Verse 2 - Ryan Key's guitar.

e|-----------------------------------------------------------------------------|
B|-----------------------------------------------------------------------------|
G|------0-----------0-------0-------0------------------------------------------|
D|----5----------12-------5-------4--------------------------------------------|
A|--2---------10--------2-------0----------------------------------------------|
E|-2-------10---------0-------0------------------------------------------------|

Verse 2 - Ryan Mendez's guitar.

e|-------7-----7-----------5-----5---------------------------------------------|
B|-----8---------8-------8---------8-------------------------------------------|
G|-0-0-----0-0------0-0-----0-0------------------------------------------------|
D|-----------------------------------------------------------------------------|
A|-----------------------------------------------------------------------------|
E|-----------------------------------------------------------------------------|

Chorus 2, First half. - Ryan Key & Ryan Mendez's guitar.

e|------------------------------------------------------------------------------|
B|------------------------------------------------------------------------------|
G|------------------------------------------------------------------------------|
D|-12-----0-----5-----7---------X2----------------------------------------------|
A|-10-X8--0-X8--2-X8-5--X8------------------------------------------------------|
E|-10-----0------2----5---------------------------------------------------------|

Chorus 2, Second half. 'You can stay there, and it's not fair.' etc.

e|-----------------------------------------------------------------------------|
B|-----------------------------------------------------------------------------|
G|-----------------------------------------------------------------------------|
D|-12-----7-----5----0-------X2------------------------------------------------|
A|-10-X8--5-X8--2-X8 0-X8------------------------------------------------------|
E|-10-----5-----2---- 0--------------------------------------------------------|

Bridge Part One.- Ryan Key's guitar. 'My only hope, you're my telescope.' etc.

e|------------------------------------------------------------------------------|
B|------------------------------------------------------------------------------|
G|------------------------------------------------------------------------------|
D|-5------7----12------0--------------------------------------------------------|
A|-2-X 13-5-X3-10--x13-0--x3---------X4-----------------------------------------|
E|-2------4----10------ 0-------------------------------------------------------|

Bridge Part One. - Ryan Mendez's guitar.

*AFTER YOU PLAY THIS THROUGH TWICE, YOU THEN DO THE  SAME AS RYAN KEY'S GUITAR (ABOVE) 
FOR THE REMAINING TWO BARS.*


e|-----------------------------------------------------------------------------|
B|-----------------------------------------------------------------------------|
G|-----------------------------------------------------------------------------|
D|--5------7-----12-----0------------------------------------------------------|
A|--2-X2---5-X3- 10-X13-0-X3-----X2--------------------------------------------|
E|--2------4-----10----- 0-----------------------------------------------------|

Bridge Part Two. Ryan Key's guitar. 'Let's just keep driving on.' etc.

e|------------------------------------------------------------------------------|
B|------------------------------------------------------------------------------|
G|---------0---------------0----------------0--------------0--------------------|
D|------12-----X2--------4----X2---------5----X2--------7-----X2----------------|
A|---10----------------0---------------2---------------5------------------------|
E|-10----------------0---------------2---------------5--------------------------|

e|----------------------------------------------------------------------------------|
B|----------------------------------------------------------------------------------|
G|-------0--------0-----------------------------------------------------------------|
D|-----12--X2---4-------------------------------------------------------------------|
A|---10--------0--------------------------------------------------------------------|
E|-10---------0---------------------------------------------------------------------|


Bridge Part Two - Ryan Mendez's guitar.

e|-------7-----7-----------5-----5-----------------------------------------------|
B|-----8---------8-------8---------8---------------------------------------------|
G|-0-0-----0-0------0-0-----0-0--------------------------------------------------|
D|----------------------------------------X3-------------------------------------|
A|-------------------------------------------------------------------------------|
E|-------------------------------------------------------------------------------|

Chorus 3 - Same as Chorus 2 + Part Three which I'll tab out below.

Chorus 3, Part Three. Ryan Key & Ryan Mendez's guitar.

e|--------------------------------------------------------------------------------|
B|--------------------------------------------------------------------------------|
G|--------------------------------------------------------------------------------|
D|-7----0-----5-----12------------------------------------------------------------|
A|-5-X8-0-X8--2-X8- 10-X8---------------------------------------------------------|
E|-5----0-----2----- 10-----------------------------------------------------------|

Outro - Ryan Key's guitar.

e|-----------------------------------------------------------------------------|
B|-----------------------------------------------------------------------------|
G|----0-------0----0----0-----0-------0----------------------------------------|
D|---5------12----5----4-----5------12-----------------------------------------|
A|--2-----10-----2----0-----2-----10-----0-------------------------------------|
E|-2----10------0----0-----2----10------0--------------------------------------|

Outro - Ryan Key's guitar. 'My only hope, you're my telescope.' etc.

e|-------7----7---------5----5--------7--------------------------------------|
B|-----8--------8-----8-------8------8---------------------------------------|
G|--0 0----0-0-----0-0----0-0----0-0---0-0-----------------------------------|
D|---------------------------------------------------------------------------|
A|---------------------------------------------------------------------------|
E|---------------------------------------------------------------------------|
Tap to rate this tab
# A B C D E F G H I J K L M N O P Q R S T U V W X Y Z