Song name
# A B C D E F G H I J K L M N O P Q R S T U V W X Y Z

Yellowcard - Fix You chords

Highlighted       Show chord diagrams
This is my first attempt a tabbing/chording a song so please bare with me, this may be
wrong, but to me it sounds about right, if there is anything you think needs fixing leave
a comment below. Thanks :)

No Capo

Intro: D F#m Bm A x2

         D                      F#m      Bm      A
When you try your best, but you don't succeed
         D                      F#m            Bm     A
When you get what you want, but not what you need
         D                  F#m          Bm       A
When you feel so tired, but you can't sleep
         D    F#m   Bm       A
Stuck in rev---er---se

         D                   F#m         Bm       A
And the tears come streaming down your face
         D                       F#m        Bm       A
When you lose something that you cannot replace
         D                    F#m       Bm      A
When you love someone, but it goes to waste
            D   F#m  Bm       A
Could it be wo---r---se?

G           D    A
     Lights will guide you home
G        D    A
     And ig---nite your bones
G          D    A
     And I will try to fix you

  D      F#m    Bm      A
|-----10-----9-----10------9---|
|------------------------------|
|--11-----11-----11-----11-----|
|------------------------------|
|------------------------------|
|------------------------------|
x2

    D                F#m     Bm      A
And high up above or down below
            D      F#m      Bm      A
When you're too in love to let it go
           D                     F#m     Bm      A
But if you never try then you'll never know
                 D   F#m  Bm      A
Just what you're w---or---th

G           D    A
     Lights will guide you home
G        D    A
     And ig---nite your bones
G          D    A
     And I will try to fix you


Solo:
*Single Strum
  D*                                    G*                                D*
|---------------------------------------------------------------------------|
|-3-3-3-3-3-3-3-3-3-3-3-3-3/11-11-11-11\3-3-3-3-3-3-3-3-3-3-3/11-11-11-11\3-|
|---------------------------------------------------------------------------|
|---------------------------------------------------------------------------|
|---------------------------------------------------------------------------|
|---------------------------------------------------------------------------|

                                 A*
|---------------------------------------------------------------------------|
|3-3-3-3-3-3-3-3-3-3/11-11-11-11\3-3-3-3\2-2-2-2-2-2-2-2-2-2-2-2------------|
|---------------------------------------------------------------------------|
|---------------------------------------------------------------------------|
|---------------------------------------------------------------------------|
|---------------------------------------------------------------------------|

  Bm*                                   G*                                D*
|---------------------------------------------------------------------------|
|-3-3-3-3-3-3-3-3-3-3-3-3-3/11-11-11-11\3-3-3-3-3-3-3-3-3-3-3/11-11-11-11\3-|
|---------------------------------------------------------------------------|
|---------------------------------------------------------------------------|
|---------------------------------------------------------------------------|
|---------------------------------------------------------------------------|

                                 A*
|---------------------------------------------------------------------------|
|3-3-3-3-3-3-3-3-3-3/11-11-11-11\3-3-3-3\2-2-2-2-2-2-2-2-2-2-2-2------------|
|---------------------------------------------------------------------------|
|---------------------------------------------------------------------------|
|---------------------------------------------------------------------------|
|---------------------------------------------------------------------------|
x2

  D                                     G                                 D
|---------------------------------------------------------------------------|
|-3-3-3-3-3-3-3-3-3-3-3-3-3/11-11-11-11\3-3-3-3-3-3-3-3-3-3-3/11-11-11-11\3-|
|---------------------------------------------------------------------------|
|---------------------------------------------------------------------------|
|---------------------------------------------------------------------------|
|---------------------------------------------------------------------------|

                                 A
|---------------------------------------------------------------------------|
|3-3-3-3-3-3-3-3-3-3/11-11-11-11\3-3-3-3\2-2-2-2-2-2-2-2-2-2-2-2------------|
|---------------------------------------------------------------------------|
|---------------------------------------------------------------------------|
|---------------------------------------------------------------------------|
|---------------------------------------------------------------------------|

  Bm                                    G                                 D
|---------------------------------------------------------------------------|
|-3-3-3-3-3-3-3-3-3-3-3-3-3/11-11-11-11\3-3-3-3-3-3-3-3-3-3-3/11-11-11-11\3-|
|---------------------------------------------------------------------------|
|---------------------------------------------------------------------------|
|---------------------------------------------------------------------------|
|---------------------------------------------------------------------------|

                                 A
|---------------------------------------------------------------------------|
|3-3-3-3-3-3-3-3-3-3/11-11-11-11\3-3-3-3\2-2-2-2-2-2-2-2-2-2-2-2------------|
|---------------------------------------------------------------------------|
|---------------------------------------------------------------------------|
|---------------------------------------------------------------------------|
|---------------------------------------------------------------------------|
x2

D                G
     Tears stream down your face
D                            F#m
     When you lose something you cannot replace
Bm               G
     Tears stream down your face
     D        A
     And I...

D                G
     Tears stream down your face
D                         F#m
     I promise you I will learn from my mistakes
Bm               G
     Tears stream down your face
     D        A
     And I...

G           D    A
     Lights will guide you home
G        D    A
     And ig---nite your bones
G          D    A            D*
     And I will try to fix you
Tap to rate this tab
# A B C D E F G H I J K L M N O P Q R S T U V W X Y Z