Song name
# A B C D E F G H I J K L M N O P Q R S T U V W X Y Z

Yellowcard - Miles Apart tab

Miles Apart
Yellowcard

tabbed by; Nate Pritchett
DropD

I tabbed this cuz its sunday and i'm bored as hell...this should be right, i tabbed out 
violin for the chorus because its a lot more fun to play than boring power chords..


   X3      X3    X3
e|-----|-----|-----|\------------ /
B|-----|-----|------------------- / \
G|--11-|--9--|--7--|  \WHOLE THIN /G X 12
D|-----|-----|-----| ------------ /
A|--9--|--7--|--5--|------------- /
D|-----|-----|------------------- /


   X3    X3    X3
E|----|------|-----|\-- /
b|----|------|--------- / \
g|-14-|--12--|--11----- /  \ WHOLE THING X7   after
D|----|------|-----| -- /
A|-12-|--10--|--9--|--- /
D|----|------|--------- /

E|-----------|-----------|-----------|--------------|
b|-----------|-----------|-----------|--------------|
g|--11-/-12--|--11-/-12--|--11-/-12--|--11-/-12-----|
D|-----------|-----------|-----------|--------------|
A|--9-/--10--|--9-/--10--|--9-/--10--|--9-/--10-----|
D|-----------|-----------|-----------|--------------|

Verse: "If I could i would do.."
e|--------------------------------------------------------------------------|
B|--------------------------------------------------------------------------|
G|--------------------------------------------------------------------------|
D|-7-7-7-7-7-7-7-7-7-7-7-7-7-7-7-7--5-5-5-5-5-5-5-5-5-5-5-5-5-5-5-5---------|
A|-5-5-5-5-5-5-5-5-5-5-5-5-5-5-5-5--3-3-3-3-3-3-3-3-3-3-3-3-3-3-3-3---------|
D|--------------------------------------------------------------------------|

e|--------------------------------------------------------------------------|
B|--------------------------------------------------------------------------|
G|--------------------------------------------------------------------------|
D|--------------------------------------------------------------------------|
A|-2-2-2-2-2-2-2-2-2-2-2-2-2-2-2-2--5-5-5-5-5-5-5-5-5-5-5-5-5-5-5-5---------|
D|-2-2-2-2-2-2-2-2-2-2-2-2-2-2-2-2--5-5-5-5-5-5-5-5-5-5-5-5-5-5-5-5---------|


CHORUS
e|-14-10----10---14-10----10---14-10---10---14-10--141517-------|
b|--------------------------------------------------------------|
g|-------14------------14------------14-------------------------|
D|--------------------------------------------------------------|
A|--------------------------------------------------------------|
D|--------------------------------------------------------------|

e|--15------15------15------15--15---15h17p15------|
b|----15--15--15--15--15--15------15---------------|
g|------16------16------16-------------------------|
D|-------------------------------------------------|
A|-------------------------------------------------|
D|-------------------------------------------------|

e|-14-10----10---14-10----10---14-10---10---14-10--141517-------|
b|--------------------------------------------------------------|
g|-------14------------14------------14-------------------------|
D|--------------------------------------------------------------|
A|--------------------------------------------------------------|
D|--------------------------------------------------------------|

e|--15------15------15------15--15---15h17p15------|
b|----15--15--15--15--15--15------15---------------|
g|------16------16------16-------------------------|
D|-------------------------------------------------|
A|-------------------------------------------------|
D|-------------------------------------------------|

e|-14-10----10---14-10----10---14-10---10---14-10--141517-------|
b|--------------------------------------------------------------|
g|-------14------------14------------14-------------------------|
D|--------------------------------------------------------------|
A|--------------------------------------------------------------|
D|--------------------------------------------------------------|

e|--15------15------15------15--15---15h17p15------|
b|----15--15--15--15--15--15------15---------------|
g|------16------16------16-------------------------|
D|-------------------------------------------------|
A|-------------------------------------------------|
D|-------------------------------------------------|

e|-14-10----10---14-10----10---12-9----9-----|
b|-------12------------12-----------10-------|
g|-------------------------------------------|
D|-------------------------------------------|
A|-------------------------------------------|
D|-------------------------------------------|

e|-15----------15-19-15--------------------------|
b|---15--15--15--------15----------15------------|
g|-----16--16------------16--16--16--------------|
D|-------------------------17--17-------12-------|
A|-----------------------------------------------|
D|-----------------------------------------------|


go from there
Tap to rate this tab
# A B C D E F G H I J K L M N O P Q R S T U V W X Y Z