Song name
# A B C D E F G H I J K L M N O P Q R S T U V W X Y Z

Yellowcard - Powder tab

Powder Bass Tab by Yellowcard

G[-------------------------------------------]    
D[-------------------------------------------]     x5
A[(5)-5-5--5-3-3-3--3-0-0--0-1-1-1-----------]      
E[-------------------------------------------]              

G[--------------------------------------------------------------------]
D[--------------------------------------------------------------------]
A[1111111111111111--3333333333333333--1111111111111111--33-33-33-33-33] 
E[--------------------------------------------------------------------]

G[--------------------------------------------------------------------]
D[--------------------------------------------------------------------]
A[1111111111111111-3333333333333333-5555555555555555-3333333333333333-]
E[--------------------------------------------------------------------]

G[---------------------------------------]  
D[---------------------------------------]     x4 
A[5-5--5-3-3-3--3-0-0--0-1-1-1-----------]     
E[---------------------------------------]

G[------------------------------------------------------------------]
D[------------------------------------------------------------------]               
A[1111111111111111--3333333333333333--1111111111111111--33-33-33-33-33] 
E[--------------------------------------------------------------------]

G[----------------------------------------------------------------]
D[----------------------------------------------------------------] x2       
A[1111111111111111333333333333333355555555555555553333333333333333]
E[----------------------------------------------------------------]

G[----------------------------------------------------------------]
D[----------------------------------------------------------------]     
A[1111111--33333333–5555-3333--11111111---------------------------]
E[----------------------------------------------------------------]

G[----------------------------------------------------------------]
D[----------------------------------------------------------------]  x2
A[1111111111111111333333333333333355555555333333331111111133333333]
E[----------------------------------------------------------------]

G[----------------------------------------------------------------]
D[----------------------------------------------------------------]
A[1-1--3-3--5-5--3333333333333333---------------------------------]
E[----------------------------------------------------------------]


G[----------------------------------------------------------------]
D[----------------------------------------------------------------]  x3
A[1111111111111111333333333333333355555555555555553333333333333333]
E[----------------------------------------------------------------]

G[----------------]
D[----------------] x8
A[1-1-1-1-1-1-1-1-]
E[----------------]
Tap to rate this tab
 
# A B C D E F G H I J K L M N O P Q R S T U V W X Y Z