Song name
# A B C D E F G H I J K L M N O P Q R S T U V W X Y Z

Yellowcard - Marthin Sheen Or Jfk tab


				Martin Sheen or JFK
					by
				   YELLOWCARD

---------------------------------------------------------------------------------------------------
hmmm i wonder if this is illegal since im obviously using copyrighted material from the tab book
 thats not even release yet (if it ever is).
How about the music company thinks before they sue and shut down our tab sites?
Obviously, there are thousand of tabs for songs that have never been released in a music 
in which the
world no longer has access to. Thank you for ultimate-guitar.com
Haha alright, sorry just had to get in my two cents.

Now heres the tab!

Tuning = Drop D

Verse - Guitar 1 - listen for strumming
e|-------------------------------------------------|
B|-------------------------------------------------|
G|--7--nothing but this octave the whole time------|
D|--x----------------------------------------------|
A|--5----------------------------------------------|
E|-------------------------------------------------|

Verse - Guitar 2 - play twice
e|-------------------------------------------------|
B|-------------------------------------------------|
G|--7-7-7-7----7-7---4-4-4-4----2-2-2-2-2-2-2-2----|
D|--7-7-7-7----7-7---4-4-4-4----2-2-2-2-2-2-2-2----|
A|--5-5-5-5----4-4---2-2-2-2----0-0-0-0-0-0-0-0----|
E|-------------------------------------------------|

Pre chorus - Guitar 1
e|-------------------------------------------------|
B|-------------------------------------------------|
G|-------------------------------------------------|
D|---5-just strum that-----------------------------|
A|---5---------------------------------------------|
E|---5---------------------------------------------|

Pre chorus - Guitar 2 - not too sure about this
e|-------------------------------------------------|
B|-------------------------------------------------|
G|--4-4-4-4---------------4-4-4-4---7-7-6-6--------|
D|--x-x-x-x--7-7-7-7------x-x-x-x---x-x-x-x--------|
A|--2-2-2-2--x-x-x-x------2-2-2-2---5-5-4-4--------|
E|-----------7-7-7-7-------------------------------|


Chorus - Guitar 1
e|-------------------------------------------------------|
B|-------------------------------------------------------|
G|--4-4-4-4--4-4-6-7----------7-7-6-4--------------------|
D|--4-4-4-4--x-x-x-x--4-4-4-4-x-x-x-x--5-x8--2-x4--4-x4--|
A|--2-2-2-2--2-2-4-5--4-4-4-4-5-5-4-2--5-----2-----4-----|
E|--------------------4-4-4-4----------5-----2-----4-----|

Chorus - Guitar 2
e|-----------------------------------------------------------|
B|-----------------------------------------------------------|
G|-4-4-4-4--7-7-9-11----------11-11-9-7----------------------|
D|-4-4-4-4--x-x-x--x--4-4-4-4--x--x-x-x--5-x8--2-x4--4-x4----|
A|-2-2-2-2--5-5-7--9--4-4-4-4--9--9-7-5--5-----2-----4-------|
E|--------------------4-4-4-4------------5-----2-----4-------|

After chorus thing, is pretty much same as before chorus

repeat verse, prechorus, chorus and after chorus thing


Bridge - Guitar 1 - probably not how YC plays it ..but sounds the same
e|----------------------------------------------------------|
B|----------------------------------------------------------|
G|-------11--9--------4-2--------4-2--------4------7-----6--|
D|----9---------0---4-----0----4-----0----0------7-----7----|
A|---------------------------------------------5-----0------|
E|--9-------------4----------5----------5-------------------|


Interlude between the two parts of the bridge
e|----------------4 times-then---------------4-------| times
B|---------------------------------------------------|
G|--------4--2-----------------------4--2------------|
D|-----4--------0-----------------4--------0---------|
A|---------------------------------------------------|
E|--5--------------------------2---------------------|

then bridge again for guitar 1
guitar just comes in slowly palmmuting a little louder and louder
e|--------------------------------------------------|
B|--------------------------------------------------|
G|----------------7---------------------------------|
D|--9----4----5---7--7------------------------------|
A|--9----4----5---5--7------------------------------|
E|--9----4----5------7------------------------------|

then just do the prechorus thingy twice and the chorus twice
Tap to rate this tab
# A B C D E F G H I J K L M N O P Q R S T U V W X Y Z