Song name
# A B C D E F G H I J K L M N O P Q R S T U V W X Y Z

Yellowcard - Two Weeks From Twenty tab

Two Weeks from Twenty - Yellowcard

Interesting song about a cattle farmer from the channel island of Jersey (or perhaps 
Anyhoo, I feel this is a slightly more complete tab than the others submitted, which 
the chords for the solo section.


intro/chorus


e|------------------|----------------|-----------------|------------------|
B|----10-------10---|----8-------8---|-----3-------3---|----10-------10---|
G|----9--------9----|----7-------7---|-----3-------3---|----9--------9----|
D|----10-------10---|----9-------9---|-----2-------2---|----10-------10---|
A|8-8----8-8-8----8-|7-7---7-7-7---7-|-3-3---3-3-3---3-|8-8----8-8-8----8-|
E|------------------|----------------|-----------------|------------------|

e|------------------|----------------|
B|----9--------9----|----5-------9---|
G|----8--------8----|----4-------9---|
D|----10-------10---|----6-------8---|
A|8-8----8-8-8----8-|4-4---4-9-9---9-|
E|------------------|----------------|

e|------------------|------------------|
B|----10-------10---|----10-------10---|
G|----9--------9----|----9--------9----|
D|----10-------10---|----10-------10---|
A|8-8----8-8-8----8-|8-8----8-8-8----8-|
E|------------------|------------------|

e|------------------------|------------------------|
B|------10----------10----|------10----------10----|
G|------10----------10----|------9-----------9-----|
D|------9-----------9-----|------9-----------9-----|
A|10-10----10-10-10----10-|10-10----10-10-10----10-|
E|------------------------|------------------------|


verse

| A A7 | D D7 | F G | C | A A7 | D D7 | F G | C C7 |


solo

Am7			    F7

e|--------------------------|-----------8-8h10p8----|
B|8/10-8h10p8---------------|--------10----------10-|
G|------------7h9-7h9-7-----|------8----------------|
D|----------------------7h9-|7\5/7------------------|
A|--------------------------|-----------------------|
E|--------------------------|-----------------------|

e|7h8p7------7h8-10-8-10-|13p11----11----11-13b15b13-11----|
B|------8h10-------------|------13----13----------------13-|
G|-----------------------|---------------------------------|
D|-----------------------|---------------------------------|
A|-----------------------|---------------------------------|
E|-----------------------|---------------------------------|

Bb		Bbm		F	F/E	Dm

e|13p10----10b11-13p10-------------|------------12-12p11p10----|
B|------11-------------10----------|---13-14-15-------------10-|
G|------------------------12-12-13-|14-------------------------|
D|---------------------------------|---------------------------|
A|---------------------------------|---------------------------|
E|---------------------------------|---------------------------|

Gm7			C9	C7b9

e|---13---------17-13----------------|
B|15----15-13---------15-------------|
G|-----------------------14\12-13/14-|
D|-----------------------------------|
A|-----------------------------------|
E|-----------------------------------|

bridge

e|----------|----------|----------|----------|
B|10---10---|8---------|6----10---|8---------|
G|9----10---|7----5----|5----10---|7----5----|
D|10---9----|9----5----|7----9----|9----5----|
A|8----10---|7----7----|5----10---|7----7----|
E|----------|-----5--3-|----------|-----5--3-|
Tap to rate this tab
# A B C D E F G H I J K L M N O P Q R S T U V W X Y Z