Song name
# A B C D E F G H I J K L M N O P Q R S T U V W X Y Z

Yellowcard - Rough Landing Holly tab

#----------------------------------PLEASE NOTE---------------------------------#
#This file is the author's own work and represents their interpretation of the #
#song. You may only use this file for private study, scholarship, or research. #
#------------------------------------------------------------------------------#

ROUGH LANDING, HOLLY
As recorded by YELLOW CARD
(From the 2006 Album LIGHTS AND SOUNDS)


Transcribed by sp-bb7



Gtr I (E A D G B E) - 'Untitled'
Gtr II (E A D G B E) - 'Untitled'

    Q=175
   4/4
    Gtr I
     E  E  E  E  E  E  E  E    E  E  E  E  E  E  E  E
||--------------------------|-------------------------|
||o-16h17-17-17-17-17-17-17-|-17-17-17-17-17-17-17-17-|
||--------------------------|-------------------------|
||--------------------------|-------------------------|
||o-------------------------|-------------------------|
||--------------------------|-------------------------|
|
|   Gtr II
|    E  E  E  E  E  E  E  E    E  E  E  E  E  E  E  E
||--------------------------|-------------------------|
||o-------------------------|-------------------------|
||--------------------------|-------------------------|
||--------------------------|-------------------------|
||o--2--2--2--2--2--2--2--2-|--2--2--2--2--2--2--2--2-|
||---0--0--0--0--0--0--0--0-|--0--0--0--0--0--0--0--0-|


   E  E  E  E  E  E  E  E    E  E  E  E  E  E  E  E
|-------------------------|-------------------------|
|-16h17-16h17-16h17-16h17-|-16h17-16h17-16h17-16h17-|
|-------------------------|-------------------------|
|-------------------------|-------------------------|
|-------------------------|-------------------------|
|-------------------------|-------------------------|
|
|  E  E  E  E  E  E  E  E    E  E  E  E  E  E  E  E
|-------------------------|-------------------------|
|-------------------------|-------------------------|
|-------------------------|-------------------------|
|-------------------------|-------------------------|
|--2--2--2--2--2--2--2--2-|--2--2--2--2--2--2--2--2-|
|--0--0--0--0--0--0--0--0-|--0--0--0--0--0--0--0--0-|


   E  E  E  E  E  E  E  E    E  E  E  E  E  E  E  E
|-------------------------|-------------------------|
|-------------------------|-16-16-16-16-16h17-17-17-|
|-16h18-18-18-18-18-18-18-|-------------------------|
|-------------------------|-------------------------|
|-------------------------|-------------------------|
|-------------------------|-------------------------|
|
|  E  E  E  E  E  E  E  E    E  E  E  E  E  E  E  E
|-------------------------|-------------------------|
|-------------------------|-------------------------|
|-------------------------|-------------------------|
|--4S=6--6--6--6--6--6--6-|-------------------------|
|--2S=4--4--4--4--4--4--4-|--6--6--6--6--2--2--2--2-|
|-------------------------|--4--4--4--4--0--0--0--0-|


   E  E  E  E  E  E  E  E    E  E  E  E  E  E  E  E
|-------------------------|---------------------------||
|-------------------------|-16-16-16-16-16h17-17-17--o||
|-16h18-18-18-18-18-18-18-|---------------------------||
|-------------------------|---------------------------||
|-------------------------|--------------------------o||
|-------------------------|---------------------------||
|
|  E  E  E  E  E  E  E  E    E  E  E  E  E  E  E  E
|-------------------------|---------------------------||
|-------------------------|--------------------------o||
|-------------------------|---------------------------||
|--4S=6--6--6--6--6--6--6-|---------------------------||
|--2S=4--4--4--4--4--4--4-|--6--6--6--6--7--7--7--7--o||
|-------------------------|--4--4--4--4--5--5--5--5---||


    $
    E E E E E E E E   E E E E E E E E   E E E E E E E E   E E E E E E E E
||------------------|-----------------|-----------------|-----------------|
||o-----------------|-----------------|-----------------|-----------------|
||------------------|-----------------|-----------------|-----------------|
||------------------|-----------------|-----------------|-----------------|
||o-2-2---2-2-2---2-|-2-2---2-2-2---2-|-2-2---2-2-2---2-|-2-2---2---------|
||--0-0---0-0-0---0-|-0-0---0-0-0---0-|-0-0---0-0-0---0-|-0-0---0-0-7-0-7-|
|
|   E E E E E E E E   E E E E E E E E   E E E E E E E E   E E E E E E E E
||------------------|-----------------|-----------------|-----------------|
||o-----------------|-----------------|-----------------|-----------------|
||------------------|-----------------|-----------------|-----------------|
||------------------|-----------------|-----------------|-----------------|
||o-2-2---2-2-2---2-|-2-2---2-2-2---2-|-2-2---2-2-2---2-|-2-2---2---------|
||--0-0---0-0-0---0-|-0-0---0-0-0---0-|-0-0---0-0-0---0-|-0-0---0-0-7-0-7-|


  1.
  E E E E E E E E   E E E E E  E E E   E E E E E E E E   E E E E E  E E E
|-----------------|------------------|-----------------|--------------------||
|-----------------|------------------|-----------------|-------------------o||
|-6-6---6-6-6---6-|-6-6---6-6-\4-4-4-|-6-6---6-6-6---6-|-6-6---6-6-\4-4-4---||
|-----------------|------------------|-----------------|--------------------||
|-4-4---4-4-4---4-|-4-4---4-4-\2-2-2-|-4-4---4-4-4---4-|-4-4---4-4-\2-2-2--o||
|-----------------|------------------|-----------------|--------------------||
|
| E E E E E E E E   E E E E E  E E E   E E E E E E E E   E E E E E  E E E
|-----------------|------------------|-----------------|--------------------||
|-----------------|------------------|-----------------|-------------------o||
|-6-6---6-6-6---6-|-6-6---6-6-\4-4-4-|-6-6---6-6-6---6-|-6-6---6-6-\4-4-4---||
|-----------------|------------------|-----------------|--------------------||
|-4-4---4-4-4---4-|-4-4---4-4-\2-2-2-|-4-4---4-4-4---4-|-4-4---4-4-\2-2-2--o||
|-----------------|------------------|-----------------|--------------------||


  2.
  E E E E E E E E   E E E E E E E E   E E E E E E E E   E E E E E E E E
|-----------------|-----------------|-----------------|------------------|
|-----------------|-----------------|-----------------|------------------|
|-----------------|-----------------|-----------------|------------------|
|-6-4-6-4-6-4-6-4-|-6-4-6-4-6-4-6-4-|-----------------|------------------|
|-----------------|-----------------|-7-6-7-6-7-6-7-6-|-7-6-7-6-7-6-7-6--|
|-----------------|-----------------|-----------------|------------------|
|
| E E E E E E E E   E E E E E E E E   E E E E E E E E   E E E E E E E E
|-----------------|-----------------|-----------------|------------------|
|-----------------|-----------------|-----------------|------------------|
|-----------------|-----------------|-----------------|------------------|
|-----------------|-----------------|-----------------|------------------|
|-7-6-7-6-7-6-7-6-|-7-6-7-6-7-6-7-6-|-4-2-4-2-4-2-4-2-|-4-2-4-2-4-2-4-2--|
|-----------------|-----------------|-----------------|------------------|


                          ~~~~~~~~~~~~~~~~~
  W          +W           W           +W
|----------|------------|-----------|---------|
|----------|------------|-----------|---------|
|----------|------------|-----------|---------|
|----------|------------|-----------|---------|
|-7--------|-(7)--------|-----------|---------|
|-5--------|-(5)--------|-x\--------|-(x)\----|
|
| W          +W           W           +W
|----------|------------|-0---------|-(0)-----|
|----------|------------|-0---------|-(0)-----|
|----------|------------|-2---------|-(2)-----|
|-2--------|-(2)--------|-2---------|-(2)-----|
|-0--------|-(0)--------|-0---------|-(0)-----|
|----------|------------|-----------|---------|


     E  E  E  E  E  E  E  E    E  E  E  E  E  E  E  E
||--19-------19-------19----|----19-------16h17p16----|
||o----17-17----17-17----17-|-17----17-17----------17-|
||--------------------------|-------------------------|
||--------------------------|-------------------------|
||o-------------------------|-------------------------|
||--------------------------|-------------------------|
|
|    E  E  E  E  E  E  E  E    E  E  E  E  E  E  E  E
||--------------------------|-------------------------|
||o-------------------------|-------------------------|
||--------------------------|-------------------------|
||--------------------------|-----------------4--4--4-|
||o--2--2--2--2--2--2--2--2-|--2--2--2--2--2--2--2--2-|
||---0--0--0--0--0--0--0--0-|--0--0--0--0--0----------|


   E  E  E  E  E  E  E  E    E  E  E  E  E  E  E   E
|-19-------19-------19----|----19-------16h17-19------||
|----17-17----17-17----17-|-17----17-17-----------17-o||
|-------------------------|---------------------------||
|-------------------------|---------------------------||
|-------------------------|--------------------------o||
|-------------------------|---------------------------||
|
|  E  E  E  E  E  E  E  E    E  E  E  E  E  E  Q
|-------------------------|---------------------------||
|-------------------------|--------------------------o||
|-------------------------|---------------------------||
|--4S=6--6--6--6--6--6--6-|--6--6--6--6--6--6--6\-----||
|--2S=4--4--4--4--4--4--4-|--4--4--4--4--4--4--4\----o||
|-------------------------|---------------------------||


   E  E  E  E  E  E  E  E    E  E  E  E  E  E  E   E
|-------------------------|-------------------19-----|
|-16h17-17-16h17-17-16h17-|-17-16h17-17-16h17-----17-|
|-------------------------|--------------------------|
|-------------------------|--------------------------|
|-------------------------|--------------------------|
|-------------------------|--------------------------|
|
|  E  E  E  E  E  E  E  E    E  E  E  E  E  E  Q
|-------------------------|--------------------------|
|-------------------------|--------------------------|
|-------------------------|--------------------------|
|-------------------------|--------------------------|
|--7--7--7--7--7--7--7--7-|--7--7--7--7--7--7--7\----|
|--5--5--5--5--5--5--5--5-|--5--5--5--5--5--5--5\----|


                                          To Coda
   E  E  E  E  E  E  E  E    E  E  E  E  E  E  E  E
|-14h16-16-14h16-16-14h16-|-19----17----16-----------|
|-------------------------|----17----17----17-19-17--|
|-------------------------|--------------------------|
|-------------------------|--------------------------|
|-------------------------|--------------------------|
|-------------------------|--------------------------|
|
|  E  E  E  E  E  E  E  E    E  E  E  E  E  E  E  E
|-------------------------|--------------------------|
|-------------------------|--------------------------|
|-------------------------|--------------------------|
|-------------------------|--------------------------|
|--4--4--4--4--4--4--4--4-|--4--4--4--4--4--4--4--4--|
|--2--2--2--2--2--2--2--2-|--2--2--2--2--2--2--2--2--|


   E  E  E  E  E  E  E  E    E  E  E  E  E  E  E  E
|-------------------------|-------------------------|
|-16h17-17-17-17-17-17-17-|-17-17-17-17-17-17-17-17-|
|-------------------------|-------------------------|
|-------------------------|-------------------------|
|-------------------------|-------------------------|
|-------------------------|-------------------------|
|
|  E  E  E  E  E  E  E  E    E  E  E  E  E  E  E  E
|-------------------------|-------------------------|
|-------------------------|-------------------------|
|-------------------------|-------------------------|
|-------------------------|-------------------------|
|--2--2--2--2--2--2--2--2-|--2--2--2--2--2--2--2--2-|
|--0--0--0--0--0--0--0--0-|--0--0--0--0--0--0--0--0-|


   E  E  E  E  E  E  E  E    E  E  E  E  E  E  E  E
|-------------------------|--------------------------|
|-16h17-16h17-16h17-16h17-|-16h17-16h17-16h17-16h17--|
|-------------------------|--------------------------|
|-------------------------|--------------------------|
|-------------------------|--------------------------|
|-------------------------|--------------------------|
|
|  E  E  E  E  E  E  E  E    E  E  E  E  E  E  E  E
|-------------------------|--------------------------|
|-------------------------|--------------------------|
|-------------------------|--------------------------|
|-------------------------|--------------------------|
|--2--2--2--2--2--2--2--2-|--2--2--2--2--2--2--2--2--|
|--0--0--0--0--0--0--0--0-|--0--0--0--0--0--0--0--0--|


   E  E  E  E  E  E  E  E    E  E  E  E  E  E  E  E
|-------------------------|-------------------------|
|-------------------------|-16-16-16-16-16h17-17-17-|
|-16h18-18-18-18-18-18-18-|-------------------------|
|-------------------------|-------------------------|
|-------------------------|-------------------------|
|-------------------------|-------------------------|
|
|  E  E  E  E  E  E  E  E    E  E  E  E  E  E  E  E
|-------------------------|-------------------------|
|-------------------------|-------------------------|
|-------------------------|-------------------------|
|--4S=6--6--6--6--6--6--6-|-------------------------|
|--2S=4--4--4--4--4--4--4-|--6--6--6--6--2--2--2--2-|
|-------------------------|--4--4--4--4--0--0--0--0-|


                                             D.S.
   E  E  E  E  E  E  E  E    E  E  E  E  E  E  E  E
|-------------------------|--------------------------|
|-------------------------|-16-16-16-16-16h17-17-17--|
|-16h18-18-18-18-18-18-18-|--------------------------|
|-------------------------|--------------------------|
|-------------------------|--------------------------|
|-------------------------|--------------------------|
|
|  E  E  E  E  E  E  E  E    E  E  E  E  E  E  E  E
|-------------------------|--------------------------|
|-------------------------|--------------------------|
|-------------------------|--------------------------|
|--4S=6--6--6--6--6--6--6-|--------------------------|
|--2S=4--4--4--4--4--4--4-|--6--6--6--6--7--7--7--7--|
|-------------------------|--4--4--4--4--5--5--5--5--|


  &
   >
   W                   +W
|-------------------|----------------------|
|-17----------------|-(17)-----------------|
|-------------------|----------------------|
|-------------------|----------------------|
|-------------------|----------------------|
|-------------------|----------------------|
|
|  E E E E E  E E E     E  E E  E E E E  E
|-------------------|----------------------|
|-------------------|----------------------|
|-------------------|----------------------|
|-------------------|----------------------|
|------7-----11-----|---9------12-----9h11-|
|--0-0---0-0----0-0-|------0-0----0-0------|


   +W                   H.            Q
|---------------------|---------------------|
|-(17)----------------|---------------------|
|---------------------|---------------------|
|---------------------|---------------------|
|---------------------|---------------------|
|---------------------|---------------x\----|
|
|   E  E E E E  E E E   E  E E  E E E E  E
|---------------------|---------------------|
|---------------------|---------------------|
|---------------------|---------------------|
|---------------------|---------------------|
|--------7-----11-----|-9------12-----9h11--|
|---0--0---0-0----0-0-|----0-0----0-0-------|


  E E E E E  E E E   E E E  E E E E  E   E E E E E  E E E   E E E  E E E E  E
|------------------|-------------------|------------------|--------------------|
|------------------|-------------------|------------------|--------------------|
|------------------|-------------------|------------------|--------------------|
|------------------|-------------------|------------------|--------------------|
|-----7-----11-----|-9-----12-----9h11-|-----7-----11-----|-9-----12-----9h11--|
|-0-0---0-0----0-0-|---0-0----0-0------|-0-0---0-0----0-0-|---0-0----0-0-------|
|
| E E E E E  E E E   E E E  E E E E  E   E E E E E  E E E   E E E  E E E E  E
|------------------|-------------------|------------------|--------------------|
|------------------|-------------------|------------------|--------------------|
|------------------|-------------------|------------------|--------------------|
|------------------|-------------------|------------------|--------------------|
|-----7-----11-----|-9-----12-----9h11-|-----7-----11-----|-9-----12-----9h11--|
|-0-0---0-0----0-0-|---0-0----0-0------|-0-0---0-0----0-0-|---0-0----0-0-------|


  E E E E E E E E   E E E  E E E E  E   E E E E E E E E   E E E E E E E E
|-----------------|-------------------|-----------------|------------------|
|-----------------|-------------------|-----------------|------------------|
|-----------------|-------------------|-----------------|------------------|
|-----------------|-------------------|-----------------|------------------|
|-0-0-6-0-0-9-0-0-|-7-0-0-11-0-0-9h11-|-0-0-6-0-0-2-0-0-|-7-0-0-4-0-0-7h9--|
|-----------------|-------------------|-----------------|------------------|
|
| E E E E E E E E   E E E  E E E E  E   E E E E E E E E   E E E E E E E E
|-----------------|-------------------|-----------------|------------------|
|-----------------|-------------------|-----------------|------------------|
|-----------------|-------------------|-----------------|------------------|
|-----------------|-------------------|-----------------|------------------|
|-0-0-6-0-0-9-0-0-|-7-0-0-11-0-0-9h11-|-0-0-6-0-0-2-0-0-|-7-0-0-4-0-0-7h9--|
|-----------------|-------------------|-----------------|------------------|


  E E E E E  E E E   E E E  E E E E  E   E E E E E  E E E   E E E  E E E E  E
|------------------|-------------------|------------------|--------------------|
|------------------|-------------------|------------------|--------------------|
|------------------|-------------------|------------------|--------------------|
|------------------|-------------------|------------------|--------------------|
|-----7-----11-----|-9-----12-----9h11-|-----7-----11-----|-9-----12-----9h11--|
|-0-0---0-0----0-0-|---0-0----0-0------|-0-0---0-0----0-0-|---0-0----0-0-------|
|
| E E E E E  E E E   E E E  E E E E  E   E E E E E  E E E   E E E  E E E E  E
|------------------|-------------------|------------------|--------------------|
|------------------|-------------------|------------------|--------------------|
|------------------|-------------------|------------------|--------------------|
|-----6------9-----|-7-----11-----7h=9-|-----6------9-----|-7-----11-----7h=9--|
|------------------|-------------------|------------------|--------------------|
|-0-0---0-0----0-0-|---0-0----0-0------|-0-0---0-0----0-0-|---0-0----0-0-------|


  E E E E E E E E   E E E  E E E E  E   E E E E E E E E   E E E  E E E E E
|-----------------|-------------------|-----------------|-------------------|
|-----------------|-------------------|-----------------|-------------------|
|-----------------|-------------------|-----------------|-------------------|
|-----------------|-------------------|-----------------|-------------------|
|-0-0-6-0-0-9-0-0-|-7-0-0-11-0-0-9h11-|-0-0-6-0-0-2-0-0-|-7-0-0--4-0-0-7h9--|
|-----------------|-------------------|-----------------|-------------------|
|
| E E E E E E E E   E E E  E E E E  E   E E E E E E E E   E E E  E E E E E
|-----------------|-------------------|-----------------|-------------------|
|-----------------|-------------------|-----------------|-------------------|
|-----------------|-------------------|-----------------|-------------------|
|-----4-----7-----|-6------9-----7h=9-|-----4-----1-----|-6-----11-----7h9--|
|-0-0---0-0---0-0-|---0-0----0-0------|-0-0---0-0---0-0-|---0-0----0-0------|
|-----------------|-------------------|-----------------|-------------------|


  >
  W                 +W
|-----------------|-------------------|
|-----------------|-------------------|
|-----------------|-------------------|
|-9---------------|-(9)---------------|
|-7---------------|-(7)---------------|
|-----------------|-------------------|
|
| E E E E E E E E    E  E E E E E E E
|-----------------|-------------------|
|-----------------|-------------------|
|-----------------|-------------------|
|-----------------|-------------------|
|-7-7-7-7-7-7-7-7-|--7--7-7-7-7-9-9-9-|
|-7-7-7-7-7-7-7-7-|--7--7-7-7-7-7-7-7-|


  +W                  +H.           +Q
|-------------------|-----------------------|
|-------------------|-----------------------|
|-------------------|-----------------------|
|-(9)---------------|-(9)-----------(9)\----|
|-(7)---------------|-(7)-----------(7)\----|
|-------------------|-----------------------|
|
|  E  E E E E E E E    E  E E E E E  E   E
|-------------------|-----------------------|
|-------------------|-----------------------|
|-------------------|-----------------------|
|-------------------|-----------------------|
|--7--7-7-7-7-7-7-7-|--7--7-7-7-7-7--7---7--|
|--9--9-9-9-9-9-9-9-|--9--9-9-9-9-9--9---9--|


  W                 W                 W                 H.           Q
|-----------------|-----------------|-----------------|--------------------|
|-----------------|-----------------|-----------------|--------------------|
|-----------------|-----------------|-----------------|--------------------|
|-----------------|-----------------|-----------------|--------------------|
|-----------------|-----------------|-----------------|--------------------|
|-----------------|-----------------|-----------------|--------------x\----|
|
| E E E E E E E E   E E E E E E E E   E E E E E E E E   E  E E E E E E  E
|-----------------|-----------------|-----------------|--------------------|
|-----------------|-----------------|-----------------|--------------------|
|-----------------|-----------------|-----------------|--------------------|
|-----------------|-----------------|-----------------|--------------------|
|-7-7-7-7-7-7-7-7-|-7-7-7-7-7-9-9-9-|-7-7-7-7-7-7-7-7-|-7--7-7-7-7-7-7--7--|
|-7-7-7-7-7-7-7-7-|-7-7-7-7-7-7-7-7-|-9-9-9-9-9-9-9-9-|-9--9-9-9-9-9-9--9--|


  E E E E E E E E   E E E E E E Q     E E E E E E E E   E E E E  E  E  E  E
|-----------------|-----------------|-----------------|------------------16--|
|-----------------|-----------------|-----------------|------------16h17-----|
|-----------------|-----------------|-----------------|---------16-----------|
|-----------------|-----------------|-----------------|----------------------|
|-7-7-7-7-7-7-7-7-|-7-7-7-7-7-7-7\--|-4-4-4-4-4-4-4-4-|-4-4-4----------------|
|-5-5-5-5-5-5-5-5-|-5-5-5-5-5-5-5\--|-2-2-2-2-2-2-2-2-|-2-2-2----------------|
|
| E E E E E E E E   E E E E E E Q     E E E E E E E E   E E E E  E  E  E  E
|-----------------|-----------------|-----------------|----------------------|
|-----------------|-----------------|-----------------|----------------------|
|-----------------|-----------------|-----------------|----------------------|
|-----------------|-----------------|-----------------|----------------------|
|-7-7-7-7-7-7-7-7-|-7-7-7-7-7-7-7\--|-4-4-4-4-4-4-4-4-|-4-4-4-4--4--4--4--4--|
|-5-5-5-5-5-5-5-5-|-5-5-5-5-5-5-5\--|-2-2-2-2-2-2-2-2-|-2-2-2-2--2--2--2--2--|


     E  E  E  E  E  E  E  E    E  E  E  E  E  E  E  E
||--19-------19-------19----|----19-------16h17p16----|
||o----17-17----17-17----17-|-17----17-17----------17-|
||--------------------------|-------------------------|
||--------------------------|-------------------------|
||o-------------------------|-------------------------|
||--------------------------|-------------------------|
|
|    E  E  E  E  E  E  E  E    E  E  E  E  E  E  E  E
||--------------------------|-------------------------|
||o-------------------------|-------------------------|
||--------------------------|-------------------------|
||--------------------------|-----------------4--4--4-|
||o--2--2--2--2--2--2--2--2-|--2--2--2--2--2--2--2--2-|
||---0--0--0--0--0--0--0--0-|--0--0--0--0--0----------|


   E  E  E  E  E  E  E  E    E  E  E  E  E  E  E   E
|-19-------19-------19----|----19-------16h17-19------||
|----17-17----17-17----17-|-17----17-17-----------17-o||
|-------------------------|---------------------------||
|-------------------------|---------------------------||
|-------------------------|--------------------------o||
|-------------------------|---------------------------||
|
|  E  E  E  E  E  E  E  E    E  E  E  E  E  E  Q
|-------------------------|---------------------------||
|-------------------------|--------------------------o||
|-------------------------|---------------------------||
|--4S=6--6--6--6--6--6--6-|--6--6--6--6--6--6--6\-----||
|--2S=4--4--4--4--4--4--4-|--4--4--4--4--4--4--4\----o||
|-------------------------|---------------------------||


   E  E  E  E  E  E  E  E    E  E  E  E  E  E  E   E
|-------------------------|-------------------19-----|
|-16h17-17-16h17-17-16h17-|-17-16h17-17-16h17-----17-|
|-------------------------|--------------------------|
|-------------------------|--------------------------|
|-------------------------|--------------------------|
|-------------------------|--------------------------|
|
|  E  E  E  E  E  E  E  E    E  E  E  E  E  E  Q
|-------------------------|--------------------------|
|-------------------------|--------------------------|
|-------------------------|--------------------------|
|-------------------------|--------------------------|
|--7--7--7--7--7--7--7--7-|--7--7--7--7--7--7--7\----|
|--5--5--5--5--5--5--5--5-|--5--5--5--5--5--5--5\----|


   E  E  E  E  E  E  E  E    E  E  E  E  E  E  E  E
|-14h16-16-14h16-16-14h16-|-19----17----16-----------|
|-------------------------|----17----17----17-19-17--|
|-------------------------|--------------------------|
|-------------------------|--------------------------|
|-------------------------|--------------------------|
|-------------------------|--------------------------|
|
|  E  E  E  E  E  E  E  E    E  E  E  E  E  E  E  E
|-------------------------|--------------------------|
|-------------------------|--------------------------|
|-------------------------|--------------------------|
|-------------------------|--------------------------|
|--4--4--4--4--4--4--4--4-|--4--4--4--4--4--4--4--4--|
|--2--2--2--2--2--2--2--2-|--2--2--2--2--2--2--2--2--|


     E  E  E  E  E  E  E  E    E  E  E  E  E  E  E  E
||--------------------------|-------------------------|
||o-16h17-17-17-17-17-17-17-|-17-17-17-17-17-17-17-17-|
||--------------------------|-------------------------|
||--------------------------|-------------------------|
||o-------------------------|-------------------------|
||--------------------------|-------------------------|
|
|    E  E  E  E  E  E  E  E    E  E  E  E  E  E  E  E
||--------------------------|-------------------------|
||o-------------------------|-------------------------|
||--------------------------|-------------------------|
||--------------------------|-------------------------|
||o--2--2--2--2--2--2--2--2-|--2--2--2--2--2--2--2--2-|
||---0--0--0--0--0--0--0--0-|--0--0--0--0--0--0--0--0-|


   E  E  E  E  E  E  E  E    E  E  E  E  E  E  E  E
|-------------------------|-------------------------|
|-16h17-16h17-16h17-16h17-|-16h17-16h17-16h17-16h17-|
|-------------------------|-------------------------|
|-------------------------|-------------------------|
|-------------------------|-------------------------|
|-------------------------|-------------------------|
|
|  E  E  E  E  E  E  E  E    E  E  E  E  E  E  E  E
|-------------------------|-------------------------|
|-------------------------|-------------------------|
|-------------------------|-------------------------|
|-------------------------|-------------------------|
|--2--2--2--2--2--2--2--2-|--2--2--2--2--2--2--2--2-|
|--0--0--0--0--0--0--0--0-|--0--0--0--0--0--0--0--0-|


   E  E  E  E  E  E  E  E    E  E  E  E  E  E  E  E
|-------------------------|-------------------------|
|-------------------------|-16-16-16-16-16h17-17-17-|
|-16h18-18-18-18-18-18-18-|-------------------------|
|-------------------------|-------------------------|
|-------------------------|-------------------------|
|-------------------------|-------------------------|
|
|  E  E  E  E  E  E  E  E    E  E  E  E  E  E  E  E
|-------------------------|-------------------------|
|-------------------------|-------------------------|
|-------------------------|-------------------------|
|--4S=6--6--6--6--6--6--6-|-------------------------|
|--2S=4--4--4--4--4--4--4-|--6--6--6--6--2--2--2--2-|
|-------------------------|--4--4--4--4--0--0--0--0-|


                               1.
    Q    E  E  E   E  +E   E    H        +E   Q    E
|-/19---17-16-17-/19-(19)-17-|-16-------(16)-----------||
|----------------------------|---------------19---17--o||
|----------------------------|-------------------------||
|----------------------------|-------------------------||
|----------------------------|------------------------o||
|----------------------------|-------------------------||
|
|   E E  E  E  E   E   E   E    E E E E   E   E E  E
|----------------------------|-------------------------||
|----------------------------|------------------------o||
|----------------------------|-------------------------||
|---4S6--6--6--6---6---6---6-|-------------------------||
|---2S4--4--4--4---4---4---4-|--6-6-6-6---7---7-7--7--o||
|----------------------------|--4-4-4-4---5---5-5--5---||


  2.
                                        >
   H        +E   Q    E    W           +W            +W            +W
|-16-------(16)------16-|-----------|-------------|-------------|---------*|
|---------------19------|-17--------|-(17)--------|-(17)--------|-(17)----*|
|-----------------------|-----------|-------------|-------------|---------*|
|-----------------------|-----------|-------------|-------------|---------*|
|-----------------------|-----------|-------------|-------------|---------*|
|-----------------------|-----------|-------------|-------------|---------*|
|
|                                       >
|  E E E E   E   E E  E    W           +W            +W            +W
|-----------------------|-----------|-------------|-------------|---------*|
|-----------------------|-----------|-------------|-------------|---------*|
|-----------------------|-----------|-------------|-------------|---------*|
|-----------------------|--2--------|--(2)--------|--(2)--------|--(2)----*|
|--6-6-6-6---7---7-7--7-|--2--------|--(2)--------|--(2)--------|--(2)----*|
|--4-4-4-4---5---5-5--5-|--0--------|--(0)--------|--(0)--------|--(0)----*|



Duration Legend
---------------
W - whole; H - half; Q - quarter; E - 8th; S - 16th; T - 32nd; X - 64th; a - acciaccatura
+ - note tied to previous; . - note dotted; .. - note double dotted
Uncapitalized letters represent notes that are staccato (1/2 duration)
Irregular groupings are notated above the duration line
Duration letters will always appear directly above the note/fret number it represents the
duration for.  Duration letters with no fret number below them represent rests.  Multi-
bar rests are notated in the form Wxn, where n is the number of bars to rest for.  Low
melody durations appear below the staff

Tablature Legend
----------------
 h   - hammer-on
 p   - pull-off
 b   - bend
 pb  - pre-bend
 r   - bend release (if no number after the r, then release immediately)
 /\  - slide into or out of (from/to "nowhere")
 s   - legato slide
 S   - shift slide
 - natural harmonic
[n]  - artificial harmonic
n(n) - tapped harmonic
 ~   - vibrato
 tr  - trill
 T   - tap
 TP  - trem. picking
 PM  - palm muting
\n/  - tremolo bar dip; n = amount to dip
 \n  - tremolo bar down
 n/  - tremolo bar up
/n\  - tremolo bar inverted dip
 =   - hold bend; also acts as connecting device for hammers/pulls
 <> - volume swell (louder/softer)
 x   - on rhythm slash represents muted slash
 o   - on rhythm slash represents single note slash

Misc Legend
-----------
 |  - bar
||  - double bar
||o - repeat start
o|| - repeat end
*|  - double bar (ending)
 :  - bar (freetime)
 $  - Segno
 &  - Coda
Tempo markers -  = BPM(8/16=s8/s16), where s8 = swing 8ths, s16 = swing 16ths

Tap to rate this tab
# A B C D E F G H I J K L M N O P Q R S T U V W X Y Z