Guitaretab - guitar tabs
Song name
# A B C D E F G H I J K L M N O P Q R S T U V W X Y Z

Yellowcard - Holly Wood Died tab

-----------------------------------------------------------------------
		   Holly Wood Died Solo - Yellowcard
-----------------------------------------------------------------------
Tabbed by: Xant

Tuning: Standard

The other tabs are close I think, but this is a little closer.  Some of the parts are 
a blur but this is as close as I can tell.

e|--------------------------------------------------------------------|
B|-----------------(7)(7)----------------(5)(5)-----------------------|
G|--9-9-8-8------6--------9-9-8-8-------------------------------------|
D|-----------9-6-------------------9-4-6~-----------------------------|
A|--------------------------------------------------------------------|
E|--------------------------------------------------------------------|

e|-------------------------------------------------------------<12>---|
B|-9h10p9-------------------------------------------------<12>--------|
G|-------11-11b13r11-11b13~r11ó11b13r11p9--9----------9~~-------------|
D|---------------------------------------11-11p9-9h11-----------------|
A|--------------------------------------------------------------------|
E|--------------------------------------------------------------------|
[ Tab from: http://www.guitaretab.com/y/yellowcard/68426.html ]
e|--------------------------------------------------------------------|
B|--------------------------------------------------------------------|
G|-8p6h9p6h8p6h8p6h8p6h9p6h8p6h8p6h8p6h9p6h8p6h8p6h8p6h9p6h8p6h8p6----|
D|--------------------------------------------------------------------|
A|--------------------------------------------------------------------|
E|--------------------------------------------------------------------|

e|--------------------------------------------------------------------|
B|--------------------------------------------------------------------|
G|-9p8h11p8h9p8h9p8h9p8h11p8h9p8h9p8-------8-9-8----------------------|
D|--------------------------------------11-------11-9-----------------|
A|-----------------------------------11-------------------------------|
E|--------------------------------------------------------------------|

e|--------------------------------------------------------------------|
B|------------(5b7)-*7*r5-----------------------8-7-8-10~--8-7--------|
G|------------------------*6*-----------------------------------------|
D|-*9*~-4---------------------------------4-5~------------------------|
A|--------7p4-----------------4--4h7--4h7-----------------------------|
E|--------------------------------------------------------------------|

* = pinch harmonic
h = hammer on
p = pull off
<>= natural harmonic
~ = vibrato
()= at the beginning, the notes in parentheses are quieter, and possibly played by 
guitar.  The 5b7 in parentheses at the end means that you bend the note before you strike it 
a pinch harmonic.
Good luck! If I find a better way to play it Iíll modify it.
======================================================================
Related for Holly Wood Died tab