Song name
# A B C D E F G H I J K L M N O P Q R S T U V W X Y Z

Yellowcard - When Were Old Men tab

Yellowcard - When We're Old Men

I'm not too sure if this is a regional extra on some Lights and Sounds CDS but you can
it on iTunes as I did. I'm pretty sure that all of the tab with the exception of Part 4
100%. The chords played sound different each time I listen so I just went for a basic 
which you can change if you find something you think sounds better. Entirely up to
guitarist!

I'll put the sections and then type the order in which they go.

Enjoy! =)

One Guitar - Tuning - Standard (EADGBe)

Part 1 - Intro, Musical Break and Verses

e----------------------------------------------------------------|
b---------5--------------5---------------------------------------|
g----------------------------------------------------------------|
d--------------6--------------6----------------------------------|
a--4--4-----4------4--4----4-------------------------------------|
e----------------------------------------------------------------|

e----------------------------------------------------------------|
b---------4--------------2---------------------------------------|
g--------------------------4-------------------------------------|
d--------------2-------------------------------------------------|
a--0--0-----0------0--0-------2----------------------------------|
e----------------------------------------------------------------|

e----------------------------------------------------------------|
b--------0--------------0----------------------------------------|
g--------------1--------------1----------------------------------|
d----------------------------------------------------------------|
a----------------------------------------------------------------|
e--0--0-----0-----0--0----0--------------------------------------|

e----------------------------------------------------------------|
b----------------------------------------------------------------|
g--------4--------------4----------------------------------------|
d--------------4--------------0---------------------(repeat 2x)--|
a--2--2-----2-----2--2----2--------------------------------------|
e----------------------------------------------------------------|


Part 2 - Chorus

"And I never meant to be"
e----------------------------------------------------------------|
b--0--------------------0----------------------------------------|
g----------------------------------------------------------------|
d-------2-----2--------------2-----2-----------------------------|
a--4-------4------------4-------4--------------------------------|
e----------------------------------------------------------------|

"Hurtful to you"
e----------------------------------------------------------------|
b--0--------------------0----------------------------------------|
g----------------------------------------------------------------|
d-------4-----4--------------4-----4-----------------------------|
a--6-------6------------6-------6--------------------------------|
e----------------------------------------------------------------|


"Please don't hate me....."("for this" 2nd time around)
e--0-------------------------------------------------------------|
b-----------------------0----------------------------------------|
g-------2-----2--------------2-----1----------------(repeat 2x)--|
d----------2--------------------2--------------------------------|
a--0--------------------0----------------------------------------|
e----------------------------------------------------------------|

Part 3 - Bridge

Violins play in the background here but I didn't bother to tab them for

guitar, again entirely optional if you want a second guitarist to play

the notes the violin does.

e---------4---------------2--------------------------------------|
b---------------0--------------0---------------------------------|
g----------------------------------------------------------------|
d----------------------------------------------------------------|
a----------------------------------------------------------------|
e----0-0-----0-------0-0-----0-----------------------------------|

e-------------------------0--------------------------------------|
b--------4------------------------------------------(repeat 2x)--|
g---------------4--------------4---------------------------------|
d----------------------------------------------------------------|
a----4-4-----4-------4-4-----4-----------------------------------|
e----------------------------------------------------------------|

e-------------------------0--------------------------------------|
b--------4-------------------------------------------------------|
g---------------4--------------4---------------------------------|
d----------------------------------------------------------------|
a----0-0-----0-------0-0-----0-----------------------------------|
e----------------------------------------------------------------|

e-------------------------0--------------------------------------|
b--------4------------------------------------------(repeat 2x)--|
g---------------4--------------4---------------------------------|
d----------------------------------------------------------------|
a----2-2-----2-------2-2-----2-----------------------------------|
e----------------------------------------------------------------|

Part 4 - Outro

It's basically alternate picking of the E5, D5, C#5, B5 and A5 chords

with the e and b strings also strummed from what I can tell (Don't trust

me for the names of the chords by the way)
The way I've played the D5 here (x59700) is just the way I like to play

that chord, it can just as easily be replaced by (x57700)
You'll get the hang of it the more you play it, I'm not 100% sure about

this part yet so any comments would be appreciated.

e------0-0-----0-0-----0-0-----0-0-------------------------------|
b------0-0-----0-0-----0-0-----0-0-------------------------------|
g------9-9-----9-9-----7-7-----7-7-------------------------------|
d------9-9-----9-9-----9-9-----9-9-------------------------------|
a---7-------7-------5-------5------------------------------------|
e----------------------------------------------------------------|


e------0-0-----0-0-----0-0-----0-0-------------------------------|
b------0-0-----0-0-----0-0-----0-0------------------(repeat 2x)--|
g------6-6-----6-6-----4-4-----2-2-------------------------------|
d------6-6-----6-6-----4-4-----2-2-------------------------------|
a---4-------4-------2-------0------------------------------------|
e----------------------------------------------------------------|


Order:

Part 1 - Intro
Part 1 - Verse 1
Part 2 - Chorus
Part 1 - Musical Break 1
Part 1 - Verse
Part 2 - Chorus
Part 3 - Bridge x2
Part 1 - Verse
Part 2 - Chorus
Part 4 - Outro


And there you go! This is my first proper tab so any comments and ratings

would be greatly appreciated! =)

Sjmcg316
Tap to rate this tab
# A B C D E F G H I J K L M N O P Q R S T U V W X Y Z