Song name
# A B C D E F G H I J K L M N O P Q R S T U V W X Y Z

Yellowcard - Martin Sheen Or Jfk tab

ARTIST:     YELLOWCARS
SONG:       MARTIN SHEEN OR JFK
ALBUM:      LIGHTS AND SOUNDS
TABBED BY:  JOSE JANKUNAS (jankunas_rock@yahoo.com)



Verse:
GTR-1
e|-----|
B|-----|
G|--7--|
D|--x--|
A|--5--|
D|--x--|

GTR-2
e|------------------------------|
B|------------------------------|
G|---------6-6-6--4-4-4--2-2-2--|
D|--0-0-0--7-7-7--4-4-4--2-2-2--|(x2)
A|--0-0-0--4-4-4--2-2-2--0-0-0--|
D|--0-0-0-----------------------|

Prechorus:
e|--------------------------------|
B|--------------------------------|
G|--0-0-0-0-2-2-2-2-4-4-4-4-7--6--|
D|--------------------------------|
A|--------------------------------|
D|--------------------------------|

Chorus:
e|-------------------------------------------------------------------------|
B|-------------------------------------------------------------------------|
G|--4-4-4-4-4-4-4-7-9-11--------------12119--------------------------------|
D|--4-4-4-4-4-4-4-x-x-x-0-0-0-0-0-0-0-x-x-x-5-5-5-5-5-5-5-5-2-2-2-2-4-4-4-4|
A|--2-2-2-2-2-2-2-5-7-9-0-0-0-0-0-0-0-109-7-5-5-5-5-5-5-5-5-2-2-2-2-4-4-4-4|
D|----------------------0-0-0-0-0-0-0-------5-5-5-5-5-5-5-5-2-2-2-2-4-4-4-4|
(x2)

Postchorus:
e|-------------------------------|
B|-------------------------------|
G|-------------------------------|
D|--5-5-5-4-4-4-0-5-5-5-4-4-4-0--|
A|--5-5-5-4-4-4-0-5-5-5-4-4-4-0--|
D|--5-5-5-4-4-4-0-5-5-5-4-4-4-0--|

-Verse

-Prechorus

-Chorus

-Postchorus

-Bridge:
e|----2-0---------------------------------------|
B|-----------------------------------3-----2----|
G|-------------4-2------4-2---2-----------------|
D|--------0--------0--------0---0------0-----0--| (x4)
A|--2------------------------------0-----0------|
D|-----------4--------5-------------------------|


Gtr-1:
e|-------------|      |-------------|
B|-------------|      |-------------|
G|------4-2-0--|      |------4-2----|
D|----0--------| (X2) |----0-----4--| (X2)
A|-------------|      |-------------|
D|--4----------|      |--4----------|

Gtr-2:
e|--3-3-3-3-5-5-5-5-7-7-7-7-10101010--|
B|------------------------------------|
G|------------------------------------|
D|------------------------------------|
A|------------------------------------|
D|------------------------------------|
Gtr-1:
e|-------------|
B|-------------|
G|------4-2----|
D|----0-----0--| (X4)
A|-------------|
D|--2----------|

-Prechorus (x2)

-Chorus (x4)

Tap to rate this tab
# A B C D E F G H I J K L M N O P Q R S T U V W X Y Z