Yellowjackets - Like A River tab

Author/Artist: Yellowjackets
Title: My Old School
Album: Like A River
Transcribed by: Doug Girard (doug.girard@gmail.com)

Here's the basic melody in the key Db major:

-|-9-8------------------------------------------------------------------------|
-|-----------11-9------------9------------------------------------------------|
-|-----10-11------------10-8--------------------------------------------------|
-|----------------10-11--------10-11--------10-10-8-6-------------------------|
-|----------------------------------------------------------------------------|
-|----------------------------------------------------------------------------|

-|-----------------------------------------------------------------------------|
-|-----------9/11-9------------------------------------------------------------|
-|-8-10-11----------11-8/10-/10-8----8-----------------------------------------|
-|---------------------------------11----8/10-/10-8-6--------------------------|
-|-----------------------------------------------------------------------------|
-|-----------------------------------------------------------------------------|

-|-13-11-------9-8------------------------------------------------------------|
-|-------10-11-----------11-9-------------------------------------------------|
-|-----------------10-11------7-10---8-7-8------------------------------------|
-|----------------------------------------------------------------------------|
-|----------------------------------------------------------------------------|
-|----------------------------------------------------------------------------|

-|-14-9/11-9------------------------------9-----------------------------------|
-|--------------11-9-----------------9/11-------------------------------------|
-|-----------11---------11-8/10-8---------------------------------------------|
-|-------------------11-----------11------------------------------------------|
-|----------------------------------------------------------------------------|
-|----------------------------------------------------------------------------|

-|-9-11-12-7/9-7--------------------------------------------------------------|
-|-----------------9-7---7-9-7-6-----9/11-9-----------------------------------|
-|---------------9---------------8-6------------------------------------------|
-|----------------------------------------------------------------------------|
-|----------------------------------------------------------------------------|
-|----------------------------------------------------------------------------|

-|----------------------------------------------------------------------------|
-|-7-6-----------6-7----------------------------------------------------------|
-|-----8-6-----6-------r8-6---------------------------------------------------|
-|---------6/8----------------------------------------------------------------|
-|----------------------------------------------------------------------------|
-|----------------------------------------------------------------------------|

-|----------------------------------------------------------------------------|
-|----------------------------------------------------------------------------|
-|----------------------------------------------------------------------------|
-|----------------------------------------------------------------------------|
-|----------------------------------------------------------------------------|
-|----------------------------------------------------------------------------|
   Db Phrygian vamp w/ chromatics thrown in
(b5)

-|----------------------------------------------------------------------------|
-|----------------------------------------------------------------------------|
-|----------------------------------------------------------------------------|
-|----------------------------------------------------------------------------|
-|----------------------------------------------------------------------------|
-|----------------------------------------------------------------------------|
   F# major bass vamp, I like it as Eb Aeolian
minor
Tap to rate this tab
 
# A B C D E F G H I J K L M N O P Q R S T U V W X Y Z