Song name
# A B C D E F G H I J K L M N O P Q R S T U V W X Y Z

Yeng Constantino - Why Cant You tab

Title: Why Can't You
Artist: Yeng Constantino

For any comments and Suggestion:

Text Me: 09198408399
Friendster: boybassista@yahoo.com

Intro:

Guitar 1:                                 Guitar 2:              
e--------------------------------------|------------------|
b--------------------------------------|---2--5~--2--5~---|
g--------9999----------1111-----9999---|-2-------2--------|
D--7777--9999---4444---2222-or--9999---|------------------|
A--7777--7777---4444---2222-----7777---|------------------|
E--5555---------2222-------------------|------------------|

Verse:

I saw you...
e---------------------------------|
b---------------------------------|
g---------------------------------|
D----------999999---------2222----|
A--777777--777777--44444--2222----|
E--555555----------22222----------|

But I know...
e-----------------------------------|---121212121212*-9p10p9-----|
b-----------------------------------|------------------------(10)|
g-----------9999-X----------111-----|----------------------------|
D--7777-X---9999-X--4444-X--222-----|----------------------------|
A--7777-X---7777-X--4444-X--222-----|----------------------------|
E--5555-X-----------2222-X----------|----------------------------|

Refrain:

e-------------------------------------------------------|
b-------------------------------------------------------|
g--77777777--99999999-111-1212-66-7777--999999----------|
D--xxxxxxxx--xxxxxxxx-xxx-xxxx-xx-xxxx--xxxxxx----------|
A--55555555--77777777-999-1010-44-5555--777777----------|
E-------------------------------------------------------|

Chorus:

Why can't you see...
Guitar 1:                                 Guitar 2:              
e--------------------------------------|------------------|
b--------------------------------------|---2--5~--2--5~---|
g--------9999----------1111-----9999---|-2-------2--------|
D--7777--9999---4444---2222-or--9999---|------------------|
A--7777--7777---4444---2222-----7777---|------------------|
E--5555---------2222-------------------|------------------|

Why can't it be.....
Guitar 1:                                 Guitar 2:              
e--------------------------------------|------------------|
b--------------------------------------|---2--5~--2--5~---|
g--------9999----------1111-----9999---|-2-------2--------|
D--7777--9999---4444---2222-or--9999---|------------------|
A--7777--7777---4444---2222-----7777---|------------------|
E--5555---------2222-------------------|------------------|

e--------------|
b--------------|
g--7777---111~-|
D--7777---222~-|
A--5555---222~-|
E--------------|


Verse:

I just waited...
e---------------------------------|
b---------------------------------|
g---------------------------------|
D----------999999---------2222----|
A--777777--777777--44444--2222----|
E--555555----------22222----------|


How I wish...
e-----------------------------------|---121212121212*-9p10p9-----|
b-----------------------------------|------------------------(10)|
g-----------9999-X----------111-----|----------------------------|
D--7777-X---9999-X--4444-X--222-----|----------------------------|
A--7777-X---7777-X--4444-X--222-----|----------------------------|
E--5555-X-----------2222-X----------|----------------------------|

Refrain:

e------------------------------------------------------------------------|
b------------------------------------------------------------------------|
g--77777777--99999999-111-1212-66-7777--999999-11111--131313-141414------|
D--xxxxxxxx--xxxxxxxx-xxx-xxxx-xx-xxxx--xxxxxx-xxxxx--xxxxxx-xxxxxx------|
A--55555555--77777777-999-1010-44-5555--777777-99999--111111-121212------|
E------------------------------------------------------------------------|


Chorus:

Why can't you see...
Guitar 1:                                 Guitar 2:              
e--------------------------------------|------------------|
b--------------------------------------|---2--5~--2--5~---|
g--------9999----------1111-----9999---|-2-------2--------|
D--7777--9999---4444---2222-or--9999---|------------------|
A--7777--7777---4444---2222-----7777---|------------------|
E--5555---------2222-------------------|------------------|

Why can't it be.....
Guitar 1:                                 Guitar 2:              
e--------------------------------------|------------------|
b--------------------------------------|---2--5~--2--5~---|
g--------9999----------1111-----9999---|-2-------2--------|
D--7777--9999---4444---2222-or--9999---|------------------|
A--7777--7777---4444---2222-----7777---|------------------|
E--5555---------2222-------------------|------------------|


e--------------|
b--------------|
g--7777---111~-|
D--7777---222~-|
A--5555---222~-|
E--------------|

Bridge:

Bass only

G----------------------------|
D----------------------------|
A------5555------------------|
E-2222--------5555---00000---|

Do CP: F#m-D-A-E (plucking)

Then:

I don't wama wake up...
e----------------------------------|-----------------------|
b----------------------------------|-----------------------|
g---------7777---------99999-------|-----------------------|
D--4444---7777--7777---99999-------|-6h7-7h6-6h7-7h6-6h7---|
A--4444---5555--7777---77777-------|-----------------------|
E--2222---------5555---------------|-----------------------|

Chorus:

Why can't you see me...

Guitar 1:                                 Guitar 2:              
e--------------------------------------|------------------|
b--------------------------------------|---2--5~--2--5~---|
g--------9999----------1111-----9999---|-2-------2--------|
D--7777--9999---4444---2222-or--9999---|------------------|
A--7777--7777---4444---2222-----7777---|------------------|
E--5555---------2222-------------------|------------------|
Tap to rate this tab
# A B C D E F G H I J K L M N O P Q R S T U V W X Y Z