Song name
# A B C D E F G H I J K L M N O P Q R S T U V W X Y Z

Yeng Constantino - Di Na Ganun tab

Highlighted       Show chord diagrams
Song: Di na ganun
Artist: Yeng Constantino
Tabbed by: Henrick Pealane
Age: 16 yrs old

(sa intro meron dung bass na nag-iislide back, ewan ko kung tama...pakinggan nyu nlng din)
Intro:
       A       (bass part)       E
e|---------0-|-------------|---0-------|
B|--0--------|-------------|---0-------|
G|-----2-----|-------------|------1----| 4x (guys, nasa inyo n po kung panu
D|-----------|-------------|-----------|     nyu pu xa gustong i-pluck, just
A|--0--------|-------------|-----------|     listen to it...)
E|-----------|--5/3-----0--|-----------|

Verse:
  A                                  E          e|-0-|
Paano nalang kung ako ang iiyak sa iyo          B|-0-| just to inform you
  A                                    E        G|-2-| how I do A..but it's
paano na yan buti kung may magawa pa ako        D|-2-| still up to you..
     C#m                             E          A|-0-|
eh paano na kung ako na ang nahihirapan         E|-0-|
   A                                   E
magagawa ko ba sayo na bigla kang talikuran

Refrain:
   G#m               F#m
Wala na ang dating tamis,
   G#m                   A         D-C#m-B
at sa tingin ko’y di ko na maibabalik

Chorus:
      E                B                  C#m    A
Bakit di ko maaming wala na ang dating damdamin,
         B
di na ganun…
      E                  B               C#m      C
at hindi ko na kayang piliting muli mong angkinin
         E    (Intro 2x)
di na ganun

Fill in:
e|--7--3--------7--3-----------7--3--------3~--|
B|--------5--3----------5--3------------5------| sounds like...^^
G|---------------------------------------------|
A|---------------------------------------------|

Verse: (same chords and timing)
Paano nalang kung biglang masabi ko sa iyo
buti kung intindihin mo ako
Paano kaya kung ikaw ay akin nang iwasan o iwanan

Refrain: (just follow the refrain above except the "D-C#m-B")
Wala na ang dating tamis,
at sa tingin ko’y di ko na ibabalik

Chorus:
Bakit di ko maaming wala na ang dating damdamin,
di na ganun…
at hindi ko na kayang piliting muli mong angkinin
di na ganun

Bridge:
C#m    /C           /B                 /Bb 
Ibubulong nalang sa hangin ang aking nararamdaman
A       F#m             A         Am 
nalilito na ako pano mo ba malalaman

(repeat chorus once then adlib) guitar only

Adlib: E-B-C#m-A-B

e|--------------------------------------------------|
B|--9/10--9---------9--------------9/10--9--7-------|
G|-----------9--11------9--11--13----------------9--| kinapa ko lang xa
D|--------------------------------------------------| pero auz nman..^^
A|--------------------------------------------------|
E|--------------------------------------------------|

e|--11/12--11--9h11p9--------------12--14---16---^17--^16--17/19~~~~--|
B|---------------------12---12/14-------------------------------------|
G|--------------------------------------------------------------------|
D|--------------------------------------------------------------------|
A|--------------------------------------------------------------------|
E|--------------------------------------------------------------------|

Chorus:
      E                B                  C#m    A
Bakit di ko maaming wala na ang dating damdamin,
         B
di na ganun…
      E                  B               C#m      C
at hindi ko na kayang piliting muli mong angkinin
         E    
di na ganun
         B
Di na ganun
         C#m A B
Di na ganun
         E
Di na ganun
         B
Di na ganun
         C#m A B E
Di na ganun....

/=slide
^=alternate picking
h=hammer
p=pull off
~=let ring or vibratto

un lang poh...
grabe ganda nitong song na to...
ate yeng, pinag aralan ko talaga tu para sayu...crush kita eh...hehe
God bless sa inyo...
rate nyu nlng poh...
just add me nalang...
"h3nrick_06@yahoo.com"
tnx....
Tap to rate this tab
# A B C D E F G H I J K L M N O P Q R S T U V W X Y Z