Yeng Constantino - Walang Hanggan tab

.,unang tab ko to,.sana magustuhan nyo,.feel free to comment sa lahat ng member ng
ultimate guitar.,.,godbless...i love them,.:))

FB-YM:dark_realm08@yahoo.com
cp:09105278840



e|-------------------------------------------------------------------|
B|---------8/10-8---7-8-----5---5------------------------------------|
G|-------7--------7-----7-----7--------------------------------------|
D|-------------------------------------------------------------------|
A|-------------------------------------------------------------------|
E|-------------------------------------------------------------------|

        walang.....         ko.....

e|-------------------------------------------------------------------|
B|---------8/10-8---7-8-----5---5------------------------------------|
G|-------7--------7-----7-----7--------------------------------------|
D|-------------------------------------------------------------------|
A|-------------------------------------------------------------------|
E|-------------------------------------------------------------------|

        itataya...          buhay...



senxa intro palang,.^^.,

,.dedicated to sa lahat ng nakakakilala sakin
Tap to rate this tab
 
# A B C D E F G H I J K L M N O P Q R S T U V W X Y Z