Song name
# A B C D E F G H I J K L M N O P Q R S T U V W X Y Z

Yeng Constantino - Sabihin Mo Na chords

Highlighted       Show chord diagrams
CAPO on 5th fret

Intro: D-A-Cm-G

e|------------------------------------------------------|
B|------3--2--3~---3--2--3--3/5--5/7--7--3--2--3~-------| 
G|---2--------------------------------------------------|
D|------------------------------------------------------|
A|------------------------------------------------------|
E|------------------------------------------------------|

Verse:
D                 A      G
Gusto kong magpaliwanag sa'yo
F#m             Em
Ngunit di kinakausap
D                A         G
Di ko inaasahang diringgin mo
F#m             Em
Nakatingala sa ulap

Refrain:
Bm                 F#m
Alam kong nasaktan nanaman kita
G               F#m
Ngunit di ko naman sinasadya
G                   F#m
Hinding-hindi na mauulit sinta
G               A
Sana'y maniwala ka

Chorus:
            D                  A
Sabihin mo na kung anong gusto mo
        F#m                 Em       
Kahit ano'y gagawin para lang sa'yo
A           D            
Sabihin mo na
            G        F#m    Em-A    
Kung papano mo mapapatawad

D|-------------------------------|
A|--------------------5-----5~---|
E|---2--4--4/5--4--2-----2-------|

Verse2:

D			A	  G
Ilang araw mo nang hindi pinapansin
F#m			Em
Ilang araw pa ang lilipas
D		     A	      G
Nakatanga sa harapan ng salamin
F#m			 Em
Naghihintay ng bawat bukas

Refrain:

Bm			F#m
Lahat naman tayo'y nagkakamali
G		F#m
Sinong di nagsasala
Bm			     F#m
Ngunit papano babawi sa pagkakamali
G		A
Yun ang mahalaga..

Chorus:
	   D			A
Sabihin mo na kung anong gusto mo
	F#m		    Em
Kahit ano'y gagawin para lang sa'yo
A	    D
Sabihin mo na
	    G	     F#m	Em-A
Kung papano mo mapapatawad

Bridge:
Bm           F#m            G          A B
Patawarin mo sana sinta di ko sinasadya ahh

(pagkatapos ng bridge transpose na po tyo..) 

Chorus:
            E                  A
Sabihin mo na kung anong gusto mo
        G#m                F#m      
Kahit ano'y gagawin para lang sa'yo
B           E            
Sabihin mo na
            A        G#m    F#m    
Kung papano mo mapapatawad  haaaaaaaad

B           E                
Sabihin mo na (sabihin mo na)
                 A
kung anong gusto mo
        G#m      
Kahit ano'y (sinta..) 
               F#m
gagawin para lang sa'yo
B           E            
Sabihin mo na
            A        G#m    F#m-B    
Kung papano mo mapapatawad  had

Outro:

D|----------------------------|
A|----------------------------|
E|---2--4--4/5--4--6--5~------|
Tap to rate this tab
# A B C D E F G H I J K L M N O P Q R S T U V W X Y Z